Song name
# A B C D E F G H I J K L M N O P Q R S T U V W X Y Z

Moonspell - Scorpion Flower tab

Ok so this is my tab for Scorpion flower!
I think its pretty good.
Sorry i dont have the solo. I can play the solo but its not exactly like the one you 
in the song but its really similair but i didnt want to tab it because it might be 
to some people.
Hope you like it!

Intro
|-----------------|
|-----------------|
|-----------------|
|-----------------|
|--0-2p0-2/3------|
|-----------------|

|---------------------------|
|---------------------------|
|---------------------------|  PLAY THIS 8 TIMES
|-10-9-8--8-8-5h7-7-7-7-7---|
|-10-9-8--8-8-5h7-7-7-7-7---|
|-10-9-8--8-8-5h7 7-7-7-7---|

Then after you played that 8 times you do this part
|---------------------------|
|---------------------------|
|---------------------------|
|-7\3-----------------------|
|-7\3--3--2--3p0-3p0-3-3/7--|
|-7\3-----------------------|

Verse
|---------------------------|
|------0-1-0-------0-1------|
|---2-----------2------2----|
|-0-----------0-------------|  PLAY THIS 9 TIMES
|---------------------------|
|---------------------------|

THIS IS STILL PART OF THE VERSE I WASN'T SO SURE ABOUT THIS PART BUT THIS IS AS CLOSE AS 
GOT
|----------0--------|
|-------3----3------|
|----2--------------| Play this 7 times
|--0----------------|
|-------------------|
|-------------------|


|-----------------|
|-----------------|
|-----------------|
|-----------------|
|--0-2p0-2/3------|
|-----------------|

Chorus

|---------------------------|
|---------------------------|
|---------------------------|
|-10-9-8--8-8-5h7-7-7-7-7---| X8
|-10-9-8--8-8-5h7-7-7-7-7---|
|-10-9-8--8-8-5h7 7-7-7-7---|


|---------------------------|
|---------------------------|
|---------------------------|
|-7\3-----------------------|
|-7\3--2--3--3p0-3p0-3p0----|
|-7\3-----------------------|

|---------------------------|
|---------------------------|
|---------------------------|
|-10-9-8--8-8-5h7-7-7-7-7---| x2
|-10-9-8--8-8-5h7-7-7-7-7---|
|-10-9-8--8-8-5h7 7-7-7-7---|

|---------------------------|
|---------------------------|
|---------------------------|
|-7\3---------------------2-|
|-7\3--2--3--3p0-3p0-3p0--0-|
|-7\3-----------------------|

Verse
|---------------------------|
|------0-1-0-------0-1------|
|---2-----------2------2----|
|-0-----------0-------------|  PLAY THIS 9 TIMES
|---------------------------|
|---------------------------|

|----------0--------|
|-------3----3------|
|----2--------------| Play this 7 times
|--0----------------|
|-------------------|
|-------------------|

Then
|-----------------|
|-----------------|
|-----------------|
|-----------------|
|--0-2p0-2/3------|
|-----------------|

Chorus
|---------------------------|
|---------------------------|
|---------------------------|
|-10-9-8--8-8-5h7-7-7-7-7---| X8
|-10-9-8--8-8-5h7-7-7-7-7---|
|-10-9-8--8-8-5h7 7-7-7-7---|
Tap to rate this tab
# A B C D E F G H I J K L M N O P Q R S T U V W X Y Z