Guitaretab - guitar tabs
Song name
# A B C D E F G H I J K L M N O P Q R S T U V W X Y Z
Home / M / Moonspell / Luna tab

Moonspell - Luna tab

well it's the first song that i tab and there's some errors and i still miss some parts 
here it goes

Bem  a minha 1 tab portanto  capaz de haver uns erros e ainda faltam umas partes

Standard tuning: eBGDAE

Intro
e----------------------------------------|
B---------5-0-3-5-0-2-5-0-1-5-0----------|
G-2/4-4-4--------------------------------|
D-------------------------------7-5-4-2--|
A-------------------------------7-5-4-2--|
E-------------------------------5-3-2-0--|


Then:
e--------------------|
B--------------------|
G---4-5-4------------|
D-2-4-5-4-2-7-5-4----|
A-2-2-3-2-2-7-5-4----|
E-0-------0-5-3-2----|

Pre-Verse:
e---------------|
B---------------|
G---------------|
D-7-5-4-7-5-4-2-|
A-7-5-4-7-5-4-2-|
E-5-3-2-5-3-2-0-|

Verse (same as intro):
e-------------------------------|
B---------5-0-3-5-0-2-5-0-1-5-0-|
G-2/4-4-4-----------------------|
D-------------------------------|
A-------------------------------|
E-------------------------------|
[ Tab from: http://www.guitaretab.com/m/moonspell/144922.html ]
Pre-Chorus:
I dont know if it's this
e-----------------------------------------------|
B-----------------------------------------------|
G-14-14-14-14-12-12-12-11-11-11-11-11-----------| (2x)
D-xx-xx-xx-xx-xx-xx-xx-xx-xx-xx-xx-xx-----------|
A-12-12-12-12-10-10-10-09-09-09-09-09-----------|
E-----------------------------------------------|

or this

e--------------------------------------------|
B--------------------------------------------|
G-9-9-9-9-9-8-8-8-8-8-7-7-7-7-7-5-5-5-5-5----|
D-x-x-x-x-x-x-x-x-x-x-x-x-x-x-x-x-x-x-x-x----|
A-7-7-7-7-7-6-6-6-6-6-4-4-4-4-4-3-3-3-3-3----|
E--------------------------------------------|
But it's something like that

Chorus:

Guitar 1(clean):
e----------------------|
B--5---5---5---5---5---|
G----4---4---4---4---4-|  (through the whole chorus)
D----------------------|
A----------------------|
E----------------------|

Guitar 2(distortion):
e-----------------------------------------------|
B-----------------------------------------------|
G--------4~~--------4~-5--------4~~-5~~---------|
D-5~~-2~-4~~-5~~-2~-4~-5-5~~-2~-4~~-5~~-5~~-7~~-|
A-5~~-2~-2~~-5~~-2~-2~-3-5~~-2~-2~~-3~~-5~~-7~~-|
E-3~~-0~-----3~~-0~------3~~-0~---------3~~-5~~-|

On the other verses the guitar 2 plays the same as the chorus but with Palm Mute

The duet part it's the same as the pre-chorus

the song ends:
e---------------------------3-2-|
B---------5-0-3-5-0-2-5-0-1-----|
G-2/4-4-4-----------------------|
D-------------------------------|
A-------------------------------|
E-------------------------------|

Happy New Year

Feliz Ano Novo
Related for Luna tab