Song name
# A B C D E F G H I J K L M N O P Q R S T U V W X Y Z

Moonspell - At Tragic Heights tab

================================================================
                  At Tragic Heights

                     Moonspell

                   Night Eternal
================================================================

               Tabbed by:  John Moores
                mooresjw@email.uc.edu
~~~~~~~~~~~~~~~~~~~~~~~~~~~~~~~~~~~~~~~~~~~~~~~~~~~~~~~~~~~~~~~~

Tuning: Standard

*  = Palm Mute
@  = Pinched harmonic
x  = muted
5t = tremolo pick at said fret

Intro
1:31

|--------------------------------------|
|------Echo notes----------------------|
|--9-8-9---9-8\\\5--/8--9--------------|
|--------------------------7~----------|  x2
|--------------------------------------|
|--------------------------------------|


1:46
|--------------------------------------|
|--------------------------------------|
|--------------------------------------|
|--/9---5------9--8---5----------------|  x3
|----------7---------------------------|
|--------------------------------------|

|--------------------------------------|
|--------------------------------------|
|--------------------------------------|
|--/9---5------9--10---8---------------|
|----------7---------------------------|
|--------------------------------------|

Repeat previous part again

2:08
|-----------------------------------|
|-----------------------------------|
|------------------2----------------|
|--2-----4----5----2--------4-------|  x2
|--2-----4----5----0--------4-------|
|--0-----2----3-------------2-------|


2:21
|----------------------------------------------------------|
|----------------------------------------------------------|
|----------------------------------------------------------|
|----------------------------------------------------------|
|-----2------2------4------5------8------8--9\8--8-8-9\8-8-|
|-00000--00000--22222--33333--66666--66666--7\6--6-6-7\6-6-|
  ****   ****   ****   ****   ****   ****

|----------------------------------------------------------|
|----------------------------------------------------------|
|----------------------------------------------------------|
|----------------------------------------------------------|
|-----2------2------4------5------8------8--7t-6t-3t-2t-2--|
|-00000--00000--22222--33333--66666--66666--------------0--|
  ****   ****   ****   ****   ****   ****

Verse
2:37
|------------------------|     |--------------------------|
|------------------------|     |--------------------------|  Repeat
|------------------------|     |--------------------------|  whole line
|-----------------9-8-8--| x3  |--------------------------|  x4
|-----------------8-7-7--|     |---7t--6t---3t-2t---------|
|--1-0000-1-0000---------|     |--------------------------|
     ****   ****

Chorus
3:05
|-----------------------------------|
|-----------------------------------|
|-----------------------------------|
|--2-----4----5----7--------4-------|  x2
|--2-----4----5----7--------4-------|
|--0-----2----3----5--------2-------|


Verse
3:20
|------------------------|     |--------------------------|
|------------------------|     |--------------------------|  Repeat
|------------------------|     |--------------------------|  whole line
|-----------------9-8-8--| x3  |--------------------------|  x4
|-----------------8-7-7--|     |---7t--6t---3t-2t---------|
|--1-0000-1-0000---------|     |-------------------0------|
     ****   ****

Chorus
3:48
|-----------------------------------|
|-----------------------------------|
|------------------2----------------|
|--2-----4----5----2--------4-------|  x4
|--2-----4----5----0--------4-------|
|--0-----2----3-------------2-------|


Interlude
4:16
|--------------------------------------|
|--------------------------------------|
|--------------------------------------|
|--/9---5------9--8---5----------------|  x3
|----------7---------------------------|
|--------------------------------------|

|--------------------------------------|
|--------------------------------------|
|--------------------------------------|
|--/9---5------9--10---8---------------|
|----------7---------------------------|
|--------------------------------------|

Repeat this part 5 times

5:10
Guitars I & II
|----------------------------------------------------------|
|----------------------------------------------------------|
|----------------------------------------------------------|
|----------------------------------------------------------|
|-----2------2------4------5------8------8--9\8--8-8-9\8-8-|
|-00000--00000--22222--33333--66666--66666--7\6--6-6-7\6-6-|
  ****   ****   ****   ****   ****   ****

|----------------------------------------------------------|
|----------------------------------------------------------|
|----------------------------------------------------------|
|---------------------------------------------pick---------|
|-----2------2------4------5------8------8------scratch----|
|-00000--00000--22222--33333--66666--66666-----------------|
  ****   ****   ****   ****   ****   ****


Bridge
5:24

Guitar I
|--------------------------------------------------------|
|--------------------------------------------------------|
|--2-2-2-2-2-2-2-2---------------------------------------|
|--2-2-2-2-2-2-2-2----3-3-3-3----6-6-6-6-----------------|  x3
|--0-0-0-0-0-0-0-0----3-3-3-3----6-6-6-6-----------------|
|---------------------1-1-1-1----4-4-4-4-----------------|

|--------------------------------------------------------|
|--------------------------------------------------------|
|--2-2-2-2-2-2-2-2---------------------------------------|
|--2-2-2-2-2-2-2-2----6-----3-----2----------------------|
|--0-0-0-0-0-0-0-0----6-----3-----2----------------------|
|---------------------4-----1-----0----------------------|


Guitar II
|--------------------------------------|
|--------------------------------------|
|--------------------------------------|
|--/7-6-7-6--3~-6--7-6-7-6-7/10--9-----|
|--------------------------------------|
|--------------------------------------|

|--------------------------------------|
|--------------------------------------|
|--------------------------------------|
|--/7-6-7-6--3~-6--7-6-7-6-7/10-9-7\\--|
|--------------------------------------|
|--------------------------------------|
                    Tempo slow down

Guitar I and II
|--------------------------------------|
|--------------------------------------|
|--------------------------------------|
|--5-----7-----8-----------------------|
|--5-----7-----8-----------------------|
|--3-----5-----6-----------------------|


Verse
5:40
|------------------------|     |--------------------------|
|------------------------|     |--------------------------|  Repeat
|------------------------|     |--------------------------|  whole line
|-----------------9-8-8--| x3  |--------------------------|  x2
|-----------------8-7-7--|     |---7t--6t---3t-2t---------|
|--1-0000-1-0000---------|     |-------------------0------|
     ****   ****

Chorus
5:54
|-----------------------------------|
|-----------------------------------|
|------------------2----------------|
|--2-----4----5----2--------4-------|  x4
|--2-----4----5----0--------4-------|
|--0-----2----3-------------2-------|


6:23
|------------------------|     |------------------------|
|------------------------|     |------------------------|
|------------------------|     |------------------------|
|-----------------9-8-8--| x2  |-----------------3-2-2--| x2
|-----------------8-7-7--|     |-----------------3-2-2--|
|--1-0000-1-0000---------|     |--1-0000-1-0000--1-0-0--|
     ****   ****                    ****   ****
Tap to rate this tab
# A B C D E F G H I J K L M N O P Q R S T U V W X Y Z