Song name
# A B C D E F G H I J K L M N O P Q R S T U V W X Y Z

Moonspell - Scorpion Flower tab

Moonspell - Scorpion Flower                                  




(0:00)

Guitar 1:

e|---------------------|--------------------|--------------------|
B|---------------------|--------------------|--------------------|
G|---------------------|--5--4--2--2--2--2--|--------------------|
D|---------------------|--5--4--2--2--2--2--|--5--7--7--7--7--7--|
A|------0--2--0--2/-3--|--3--2--0--0--0--0--|--5--7--7--7--7--7--|
E|---------------------|--------------------|--3--5--5--5--5--5--|

|--------------------|--------------------|
|--------------------|--------------------|
|--5--4--2--2--2--2--|-----2--4--2--4--5--|
|--5--4--2--2--2--2--|--7--2--4--2--4--5--|
|--3--2--0--0--0--0--|--7--0--2--0--2--3--|
|--------------------|--5-----------------| 4x


Guitar 2:  
           
e|---------------|---------------------|--------------------||
B|---------------|---------------------|--------------------||
G|---------------|--/9--9--9--9--9--9--|--9--9--9--9--9--9--||
D|---------------|---------------------|--------------------||
A|---------------|--/7--7--7--7--7--7--|--7--7--7--7--7--7--||
E|---------------|---------------------|--------------------||

--------------------|--------------------|
--------------------|--------------------|
--9--9--9--9--9--9--|--9--9--------------|
--------------------|--------------------|
--7--7--7--7--7--7--|--7--7--2--0--2/-3--|
--------------------|--------------------| 2x



e|---------------------------|--------------------------||
B|---------------------------|--------------------------||
G|--/10--10--10--10--10--10--|--10--10--10--10--10--10--||
D|---------------------------|--------------------------||
A|---/8---8---8---8---8---8--|---8---8---8---8---8---8--||
E|---------------------------|--------------------------||

---------------------------|--------------------------|
---------------------------|--------------------------|
--/10--10--10--10--10--10--|--10--10--10--10--10--10--|
---------------------------|--------------------------|
---/8---8---8---8---8---8--|---8---8---8---8---8---8--|
---------------------------|--------------------------|


e|---------------|---------------------|--------------------|--------------------||
B|---------------|---------------------|--------------------|--------------------||
G|---------------|--/9--9--9--9--9--9--|--9--9--9--9--9--9--|--9--9--9--9--9--9--||
D|---------------|---------------------|--------------------|--------------------||
A|---------------|--/7--7--7--7--7--7--|--7--7--7--7--7--7--|--7--7--7--7--7--7--||
E|---------------|---------------------|--------------------|--------------------||

--------------------|
--------------------|
--9--9--------------|
--------------------|
--7--7--2--0--2/-3--|
--------------------|





(0:23)

Guitar 1

e|--------------------|--------------------|--------------------|--------------------||
B|--------------------|--------------------|--------------------|--------------------||
G|--------------------|--------------------|--------------------|--------------------||
D|--3--3--3--3--3--3--|--3--3--3--3--3--3--|--5--5--5--5--5--5--|--2-----2-----2-----||
A|--3--3--3--3--3--3--|--3--3--3--3--3--3--|--5--5--5--5--5--5--|--2-----2-----2-----||
E|--1--1--1--1--1--1--|--1--1--1--1--1--1--|--3--3--3--3--3--3--|--0-----0-----0-----||

--------------------|
--------------------|
--2-----------------|
--2-----------------|
--0-----------------|
--------------------|



Guitar 2

e|--------------------|-------------------|--------------------|--------------------||
B|--------------------|-------------------|--------------------|--------------------||
G|--------------------|-------------------|--------------------|--------------------||
D|--------------------|-------------------|--------------------|--------------------||
A|-----------3--------|--2----------------|-----------5--------|--0--0--2--0--2/-3--||
E|--1-----------------|-------------------|--3-----------------|--------------------||

---------------------|
---------------------|
--/9--9--9--9--9--9--|
---------------------|
--/7--7--7--7--7--7--|
---------------------|




Verse: (0:34)

e|--------------------|--------------------|--------------------|--------------------|
B|-----------1--------|--------1-----------|-----------1--------|--------1-----------|
G|--------4-----4-----|-----------4-----4--|--------4-----4-----|-----------4-----4--|
D|-----3-----------3--|-----3--------3-----|-----3-----------3--|-----3--------3-----|
A|--0-----------------|--0-----------------|--0-----------------|--0-----------------|
E|--------------------|--------------------|--------------------|--------------------|
                                                                                              2X
  
e|--------------------|--------------------|--------------------|--------------------|
B|-----------1--------|--------1-----------|-----------1--------|--------1-----------|
G|--------4-----4-----|-----------4-----4--|--------4-----4-----|-----------4-----4--|
D|-----3-----------3--|-----3--------3-----|-----3-----------3--|-----3--------3-----|
A|--2-----------------|--2-----------------|--2-----------------|--2-----------------|
E|--------------------|--------------------|--------------------|--------------------|  

Curse the day, hail the night 
Flower grown in the wild




e|-----------0--------|-----------0--------|-----------1--------|-----------0--------|
B|--------3-----3-----|--------3-----3-----|--------3-----3-----|--------3-----3-----|
G|-----2-----------2--|-----2-----------2--|-----2-----------2--|-----2-----------2--|
D|--0-----------------|--0-----------------|--3-----------------|--2-----------------|
A|--------------------|--------------------|--------------------|--------------------|
E|--------------------|--------------------|--------------------|--------------------|


e|-----------0--------|-----------0--------|-----------1--------|---------------------|
B|--------3-----3-----|--------3-----3-----|--------3-----3-----|---------------------|
G|-----2-----------2--|-----2-----------2--|-----2-----------2--|---------------------|
D|--0-----------------|--0-----------------|--3-----------------|--2------------------|
A|--------------------|--------------------|--------------------|---------------------|
E|--------------------|--------------------|--------------------|---------------------|

In your empty heart 
In the breast that feeds 
Flower worn in the dark 




Chorus: (1:05)

Guitar 1:

e|---------------------|--------------------|--------------------||
B|---------------------|--------------------|--------------------||
G|---------------------|--5--4--2--2--2--2--|--------------------||
D|---------------------|--5--4--2--2--2--2--|--5--7--7--7--7--7--||
A|---------2--0--2/-3--|--3--2--0--0--0--0--|--5--7--7--7--7--7--||
E|---------------------|--------------------|--3--5--5--5--5--5--||

--------------------|--------------------|
--------------------|--------------------|
--5--4--2--2--2--2--|-----2--4--2--4--5--|
--5--4--2--2--2--2--|--7--2--4--2--4--5--|
--3--2--0--0--0--0--|--7--0--2--0--2--3--|
--------------------|--5-----------------| 4x



e|--------------------|--------------------|--------------------|--------------------||
B|--------------------|--------------------|--------------------|--------------------||
G|--------------------|--------------------|--------------------|-----2--4--2--4--5--||
D|--3--3--3--3--3--3--|--3--3--3--3--3--3--|--5--5--5--5--5--5--|--5--2--4--2--4--5--||
A|--3--3--3--3--3--3--|--3--3--3--3--3--3--|--5--5--5--5--5--5--|--5--0--2--0--2--3--||
E|--1--1--1--1--1--1--|--1--1--1--1--1--1--|--3--3--3--3--3--3--|--3-----------------||

---------------|
---------------|
--2------------|
--2------------|
--0------------|
---------------|


Guitar 2:  
           
e|---------------|---------------------|--------------------|--------------------||
B|---------------|---------------------|--------------------|--------------------||
G|---------------|--/9--9--9--9--9--9--|--9--9--9--9--9--9--|--9--9--9--9--9--9--||
D|---------------|---------------------|--------------------|--------------------||
A|---------------|--/7--7--7--7--7--7--|--7--7--7--7--7--7--|--7--7--7--7--7--7--||
E|---------------|---------------------|--------------------|--------------------||

--------------------|
--------------------|
--9--9--------------|
--------------------|
--7--7--2--0--2/-3--|
--------------------|
 2x


e|---------------------------|--------------------------||
B|---------------------------|--------------------------||
G|--/10--10--10--10--10--10--|--10--10--10--10--10--10--||
D|---------------------------|--------------------------||
A|---/8---8---8---8---8---8--|---8---8---8---8---8---8--||
E|---------------------------|--------------------------||

---------------------------|--------------------------|
---------------------------|--------------------------|
--/10--10--10--10--10--10--|--10--10--10--10--10--10--|
---------------------------|--------------------------|
---/8---8---8---8---8---8--|---8---8---8---8---8---8--|
---------------------------|--------------------------|


e|---------------|---------------------|--------------------|--------------------||
B|---------------|---------------------|--------------------|--------------------||
G|---------------|--/9--9--9--9--9--9--|--9--9--9--9--9--9--|--9--9--9--9--9--9--||
D|---------------|---------------------|--------------------|--------------------||
A|---------------|--/7--7--7--7--7--7--|--7--7--7--7--7--7--|--7--7--7--7--7--7--||
E|---------------|---------------------|--------------------|--------------------||

--------------------|
--------------------|
--9--9--------------|
--------------------|
--7--7--2--0--2/-3--|
--------------------|

Can I steal your mind for a while? 
Can I stop your heart for a while? 
Can I freeze your soul and your time? 




(1:28)

e|--------------------|--------------------|--------------------|--------------------|
B|--------------------|--------------------|--------------------|--------------------|
G|--------------------|--------------------|--------------------|--------------------|
D|--3--3--3--3--3--3--|--3--3--3--3--3--3--|--5--5--5--5--5--5--|--2--2--2--2--2--2--|
A|--3--3--3--3--3--3--|--3--3--3--3--3--3--|--5--5--5--5--5--5--|--2--2--2--2--2--2--|
E|--1--1--1--1--1--1--|--1--1--1--1--1--1--|--3--3--3--3--3--3--|--0--0--0--0--0--0--|

Scorpion flower




e|--------------------|--------------------|--------------------|--------------------|
B|--------------------|--------------------|--------------------|--------------------|
G|--5--4--2--2--2--2--|--------------------|--5--4--2--2--2--2--|-----2--2--2--2--2--|
D|--5--4--2--2--2--2--|--5--7--7--7--7--7--|--5--4--2--2--2--2--|--7--2--2--2--2--2--|
A|--3--2--0--0--0--0--|--5--7--7--7--7--7--|--3--2--0--0--0--0--|--7--0--0--0--0--0--|
E|--------------------|--3--5--5--5--5--5--|--------------------|--5-----------------|

Token of death 




e|--------------------|--------------------|--------------------|--------------------||
B|--------------------|--------------------|--------------------|--------------------||
G|--------------------|--------------------|--------------------|--------------------||
D|--3--3--3--3--3--3--|--3--3--3--3--3--3--|--5--5--5--5--5--5--|--2-----2-----2-----||
A|--3--3--3--3--3--3--|--3--3--3--3--3--3--|--5--5--5--5--5--5--|--2-----2-----2-----||
E|--1--1--1--1--1--1--|--1--1--1--1--1--1--|--3--3--3--3--3--3--|--0-----0-----0-----||

--------------------|
--------------------|
--2-----------------|
--2-----------------|
--0-----------------|
--------------------|

Ignite the skies with your eyes 
And keep me away from your light 




Verse: (1:49)

Surrender tears to your mortal act 
Flower cursed be thy fruit 
Of your courage last 
Of your grand finale 
Flower crushed in the ground 
In your empty heart 
In the breast that feeds 
Flower worn in the dark




Chorus: (2:31)

Can I steal your mind for a while? 
Can I stop your heart for a while? 
Can I freeze your soul and your time? 




Solo: (2:53)

Rhytm guitar:

e|----------------------------------------|
B|----------------------------------------|
G|----------------------------------------|
D|--9-----7---4-----5-----9-----5---7-----|
A|--7-----5---2-----3-----7-----3---5-----|
E|--7-----5---2-----3-----7-----3---5-----| 2x


Solo guitar:

e|-------------------|--------------|------------------|--------------------|
B|-------------------|--------------|------------------|--------------------|
G|-------------------|--4~----------|------------------|--5--4-----4--------|
D|--/7~--------5--7--|--------5~----|--7~-----------5--|--------7-----7--5--|
A|-------------------|--------------|------------7-----|--------------------|
E|-------------------|--------------|------------------|--------------------|

 
e|-------------------|--------------|----------------|--------------------------------------|
B|-------------------|--------------|----------------|--------------------------------------|
G|-------------------|--4~----------|----------------|-----------------9--10-12-10-9-----9--|
D|--/7~--------5--7--|--------5~----|--7~------------|--------9--10-12----------------12----|
A|-------------------|--------------|----------------|--10-12-------------------------------|
E|-------------------|--------------|----------------|--------------------------------------|


e|----------------------|----------------|-----------------------|-----------------------------|
B|----------------------|--12~-----------|-----------------------|--13--12----------13g15--13--|
G|--/14~--------12--14--|---------12~----|--14~------12------12--|----------14--12-------------|
D|----------------------|----------------|---------------14------|-----------------------------|
A|----------------------|----------------|-----------------------|-----------------------------|
E|----------------------|----------------|-----------------------|-----------------------------|

   
e|---------------------|----------------|---------------------|
B|---------------------|--12~-----------|-----------------17h-|
G|--14~--------12--14--|---------12~----|--14~--------14------|
D|---------------------|----------------|---------------------|
A|---------------------|----------------|---------------------|
E|---------------------|----------------|---------------------|
  
  
e|-------------------------------------------|-----------------|
B|--20p-17----17-----------------------------|-----------------|
G|---------19----19p-17h-19-17----17---------|-----------------|
D|-----------------------------19----19p-17h-|--19~------------|
A|-------------------------------------------|-----------------|
E|-------------------------------------------|-----------------|




Verse: (3:32)

In your empty heart 
In the breast that feeds 
Flower worn in the dark 




Chorus: (3:42)

Can I steal your mind for a while? 
Can I stop your heart for a while? 
Can I freeze your soul and your time? 
Scorpion flower 
Token of death 
Ignite the skies with your eyes
Tap to rate this tab
 
# A B C D E F G H I J K L M N O P Q R S T U V W X Y Z