Song name
# A B C D E F G H I J K L M N O P Q R S T U V W X Y Z

Moonspell - Night Eternal tab

e|-----------------------------------------------------------------------------|
b|-----------------------------------------------------------------------------|
g|-----------------------------------------------------------------------------|
d|-----2--3--2-2-----2--3--2-2-----2--3--2-2----2-------3----------------------|
a|----2-------2-----2-------2-----2-------2----2-2-----3-3---------------------|
e|--0--------------0-------------0------------0-------1------------------------|

repeat top twice

e|-----------------------------------------------------------------------------|
b|-----------------------------------------------------------------------------|
g|-----------------------------------------------------------------------------|
d|---2----22222---2----22222---2----22222------3------3------------------------|
a|---2----22222---2----22222---2----22222-----3-3----3-3-----------------------|
e|---0----00000---0----00000---0----00000----1------1--------------------------|

repeat the beginning twice
Tap to rate this tab
# A B C D E F G H I J K L M N O P Q R S T U V W X Y Z