Song name
# A B C D E F G H I J K L M N O P Q R S T U V W X Y Z

Moonspell - Lua Dinverno tab

MOONSPELL - Lua d'inverno
from the album "Wolfheart"
		transcribed by Haris Durakovic


Riff 1 (all acoustic)

|---------------------|---------------------|
|-------0-----0-------|---------------------|
|----0-----0----------|----------0----------|
|---------------------|----4----------------|
|----------------0----|-------5-----5--0----|
|-0-----------------0-|-0-----------------0-|


Riff 2

|------------------|------------------|
|-------0-----0----|-------0-----0----|
|----0-----0-----0-|----0-----0-----0-|
|------------------|------------------|
|------------------|------------------|
|-0----------------|-0----------------|



|------------------|------------------|
|------------------|------------------|
|----------0-------|----------0-------|
|----4-----------4-|----4-----------4-|
|-------5-----5----|-------5-----5----|
|-0----------------|-0----------------|



|------------------|------------------|
|-------0-----0----|-------1-----1----|
|----0-----0-----0-|----0-----0-----0-|
|------------------|------------------|
|------------------|------------------|
|-0----------------|-0----------------|

|------------------|------------------|
|------------------|------------------|
|----------0-------|----------0-------|
|----4-----------4-|----4-----------4-|
|-------5-----5----|-------5-----5----|
|-0----------------|-0----------------|
Tap to rate this tab
 
# A B C D E F G H I J K L M N O P Q R S T U V W X Y Z