Song name
# A B C D E F G H I J K L M N O P Q R S T U V W X Y Z

Moonspell - Capricorn At Her Feet tab

Help us improve GuitareTab! Take a short survey!
0:00-0:12
e|---------------------------|
B|---------------------------|
G|------------5--------------| Play this 3 times
D|------2-4-5-5-5-5-5-4-4-2--|
A|--2---------3-------------2|
E|--0-----------------------0|


0:12-0:19
e|------------------------------------------------|
B|------------------------------------------------|
G|----------5-------------------------------------|
D|----2-4-5-5-5-5-5-4-4-2--5-x-x-5-x-x-6-x-x-7-7-7|
A|-2--------3--------------7-x-x-7-x-x-8-x-x-9-9-9|
E|-0-----------------------7-x-x-7-x-x-8-x-x-9-9-9|


0:20-0:51
e|-----------------------------------|
B|-----------------------------------|
G|-----------------------------------| Play this 2 times
D|-----------------------------------|
A|2-2-2-2-5-5-5-5-7-7-7-7-10-10-12-12|
E|0-0-0-0-3-3-3-3-5-5-5-5--8--8-10-10|


0:51-1:03
e|---------------------------|
B|---------------------------|
G|------------5--------------| Play this 3 times
D|------2-4-5-5-5-5-5-4-4-2--|
A|--2---------3-------------2|
E|--0-----------------------0|

1:03-1:15
e|-------------------------------------------------------------------------|
B|-------------------------------------------------------------------------|
G|----------5--------------------------------------------------------------|
D|----2-4-5-5-5-5-5-4-4-2--5-x-x-5-x-x-6-x-x-7-7-7--5-x-x-5-x-x-6-x-x-7-7-7|
A|-2--------3--------------7-x-x-7-x-x-8-x-x-9-9-9--7-x-x-7-x-x-8-x-x-9-9-9|
E|-0-----------------------7-x-x-7-x-x-8-x-x-9-9-9--7-x-x-7-x-x-8-x-x-9-9-9|

After this, everything's the same, just the solo's different.
It's not all perfect, you'll see little differences.
Related for Capricorn At Her Feet tab