Song name
# A B C D E F G H I J K L M N O P Q R S T U V W X Y Z

Moonstar 88 - Sulat tab

Title:Sulat
Artist: Moonstar 88
Tabbed by: xEph
           pseudosymphonia@yahoo.com
	   www.friendster.com/xeph
Difficulty: Easy
Tuning: Standard

*This one's for "pareng Jed". Sorry, ngayon ko lang din ginawa. xP*


*For corrections, suggestions, etc... Just post it here or message me personally. Thanks!*

Legend:

b-baluktot
p-hila
h-martilyo
s-dulas

*Just listen carefully to the song to "get it".*

intro/verse chords: g-am-bm-am

chorus: g-c-cm2x bm-em-c-d

solo(Thanks to Charles)


e-----------------------------------------------------------------------------|
B-----------------------------------------------------------------------------|
G--14b14b-12-11-11h12-11-12p11--12p11-------------------------------------12--|
D-----------------------------12-----12-12h10---9h10-1010-10s12-1212-12s14----|
A---------------------------------------------10------------------------------|
e-----------------------------------------------------------------------------|


e----------------------15p14--------------------------------------------------|
B-----15---15---15(15)------15-----15-----------------------------------------|
G--14b--14b--14b---14b--------14h16---14-12-11-1212p11--11h12-1212-12s1414----|
D-----------------------------------------------------12----------------------|
A-----------------------------------------------------------------------------|
e-----------------------------------------------------------------------------|


e-----------------------------------------------------------------------------|
B-----------------------------------------------13p12---13p12-----------------|
G-----------7h9-99-9s11-1111-11s12-1212-12s1414------12------12---------------|
D----5-7s99-------------------------------------------------------------------|
A-5h7-------------------------------------------------------------------------|
E-----------------------------------------------------------------------------|


e-----------------------------------------------------------------------------|
B-----------------------------------8-10b--8~---------------------------------|
G-5p4--55p4--4h5-55-5s7-77-7s9----9------9------------------------------------|
D----5-----5------------------------------------------------------------------|
A-----------------------------------------------------------------------------|
E-----------------------------------------------------------------------------|

			      -end-
Tap to rate this tab
 
# A B C D E F G H I J K L M N O P Q R S T U V W X Y Z