Song name
# A B C D E F G H I J K L M N O P Q R S T U V W X Y Z

Moore Gary - Walking By Myself tab

                                WALKING BY MYSELF
                          As recorded by Jimmy Rodgers


Gtr I (E A D G B E) - 'Gtr. 1'

  Q=116(8=s8)
 1/8 4/4
  Gtr I
|---|--------------|-----------------------|
|---|-----0------3-|-(3)---0---------------|
|---|-0h1----------|---------4s2-(2)-----2-|
|---|--------------|-----2-----------1-1---|
|---|--------------|-----------------------|
|-0-|--------------|-----------------------|


|---------0----|------------------------|
|-----0-0----3-|-3-3-3-0-3-3-0-3-3-0-0--|
|-1-1----------|------------------------|
|--------------|-----2------------------|
|--------------|------------------------|
|--------------|-0----------------------|


|---------0h2-3-3---|---------------|----------------|-0-------------|
|---1s2-------------|--3------0-----|---------0------|----0-0---0----|
|-------------------|----4s2--2-0h1-|-(1)--------2-0-|-1-------------|
|-------2-----------|---------------|-----2----------|---------------|
|-------------------|---------------|----------------|----2---2---2--|
|-0-----------------|---------------|----------------|---------------|


                     3x
||-------------------||-----------------------|
||o-----------------o||---3-3-0---3-0---3-0-0-|
||-------------------||---------1-----1-------|
||-------------------||-----------------------|
||o-2-2-4-4-2-2-4-4-o||-----------------------|
||--0-0-0-0-0-0-0-0--||-0---0-----0-----0-----|


|-----------------|---------------|
|-----------------|--3-0----------|
|-----------------|------4s2-0----|
|-2-2-4-4-2-2-4-4-|------------2--|
|-0-0-0-0-0-0-0-0-|---------------|
|-----------------|---------------|


|-------------0-|---------------|-0--------|-----------|
|-------0-0-2---|---0-0-0-------|-0--------|------0-2--|
|---------------|---------------|-1--------|--------2--|
|---------------|---------------|-2--------|--------2--|
|----2----------|-----2---2--2--|-2--------|-----------|
|-0--0--0---0---|-0-------------|-0--------|-----------|


|-0-0--------|----------------------|----------|---------------|
|-0-0--------|--0-----0-----0-----0-|----------|--------0---0--|
|-0-1--------|----0-1---0-1---0-1---|----------|----------2----|
|-2-2--------|----------------------|-2--------|------2--------|
|-2-2--------|----------------------|----------|---------------|
|-0-0--------|----------------------|----------|---------------|


|----------|------------|----------------0-*|
|----------|------0-0-0-|-------0-(0)----3-*|
|-2--------|------2-2-2-|-------1-(1)----4-*|
|----------|------1-1-1-|-------0-(0)----0-*|
|----------|------2-2-2-|---2-4------------*|
|----------|------------|-0------------0---*|


Tablature Legend
----------------
 h   - hammer-on
 p   - pull-off
 b   - bend
 pb  - pre-bend
 r   - bend release (if no number after the r, then release immediately)
 /\  - slide into or out of (from/to "nowhere")
 s   - legato slide
 S   - shift slide
  - natural harmonic
[n]  - artificial harmonic
n(n) - tapped harmonic
 ~   - vibrato
 tr  - trill
 T   - tap
 TP  - trem. picking
 PM  - palm muting
\n/  - tremolo bar dip; n = amount to dip
 \n  - tremolo bar down
 n/  - tremolo bar up
/n\  - tremolo bar inverted dip
 =   - hold bend; also acts as connecting device for hammers/pulls
 <>  - volume swell (louder/softer)
 x   - on rhythm slash represents muted slash
 o   - on rhythm slash represents single note slash

Misc Legend
-----------
 |  - bar
||  - double bar
||o - repeat start
o|| - repeat end
*|  - double bar (ending)
 :  - bar (freetime)
 $  - Segno
 &  - Coda
Tempo markers -  = BPM(8/16=s8/s16), where s8 = swing 8ths, s16 = swing 16ths


Tap to rate this tab
# A B C D E F G H I J K L M N O P Q R S T U V W X Y Z