Song name
# A B C D E F G H I J K L M N O P Q R S T U V W X Y Z

Moore Thurston - Ono Soul tab

#----------------------------------PLEASE NOTE---------------------------------#
#This file is the author's own work and represents their interpretation of the #
#song. You may only use this file for private study, scholarship, or research. #
#------------------------------------------------------------------------------##
Ono Soul
by: thurston moore
from:mike abraham(bobbyblu@star.net)
off of the "physic hearts" album
tabbed by mike abraham

tidbit:
the original thurston moore band was going to be called "male slut" for this record.

main riff:


|----------------------------------------------------|
|----------------------------------------------------|
|----2---2-------3------2---2------------------------|
|--0---0---0-1-1------0---0---0---1-1--1-1-3---------|
|--------------------------------------3-------------|
|----------------------------------------------------|

|----------------------------------------------------|
|----------------------------------------------------|
|----2---2-------3------2---2------------------------|
|--0---0---0-1-1------0---0---0---1-1--1-1-----------|
|--------------------------------------3---- 3-------|
|----------------------------------------------------|

and then the chorus(strumming not shown):


F       Dm     F    Ebm                        CHORDS:
            																								  F= x03211
ono soul.......ono soul.........                        Dm= xx0231
																														  Ebm= xx4342

F       Dm     F    Ebm

ono soul.......ono soul.........
Tap to rate this tab
# A B C D E F G H I J K L M N O P Q R S T U V W X Y Z