Song name
# A B C D E F G H I J K L M N O P Q R S T U V W X Y Z

Moos - Thats Bolix Miss We Didnt Do Shit tab

Help us improve GuitareTab! Take a short survey!
intro
e---------------------------------------------------------|
a---------------------------------------------------------|
d---------------------------------------------------------|
g----------------12-14-15-12-14-15------------------------|
b---------------------------------------------------------|
e---------------------------------------------------------|

e---------------------------------------------------------|
a---------------------------------------------------------|
d---------------------16----------------------------------|
g-----------------------12--------------------------------|
b--------------10-11-12-13--------19----------------------|
e-----------------------10--------------------------------|
                           intro ends
  cadd9                   F#                       Am
e----------------------------9----------------------------|
a----5------------------10--------------------------------|
d---5-------------------10------------------------2-------|
g-----------------------10------------------------2-------|
b----5-----------------------9--------------------------1-|
e----------------------------9----------------------------|
e---------------------------------------------------------|
a---------------------------------------------------------|
d---------------------------------------------------------|
g-----------------------------17--------------------------|
b------------------10-----10------15-16-18-15-0-0-0-------| Whammy
e----------------15----15---------------------------------|

e---------------16----------------------------------------|
a-----------14------0-0-0-0-------------------------------|
d-----------------13--------------------------------------|
g---------------12-------------16-------------------------|
b-------------------14------------17-18-19----------------|
e---------------------------15----------------------------|

e---------------12-13-14-15-16----------------------------|
a---------------------------------------------------------|
d---------------------------------------------------------|
g------------------------------10-11-12-------------------|
b---------------------------------------------------------|
e--------------------------------------------0-0-0-0------|
                              solo
e-----------------14-------------------------4-0-----------|
a--------------13---17------------------15------0----------|
d-----------12-------------12--------------18----0---------|
g--------11--------------11------10---------------0--------|
b-----10--------------10------------13--------------10-----| Whammy 3 times
e---9---------------9--------10----------------------------|
Related for Thats Bolix Miss We Didnt Do Shit tab