Song name
# A B C D E F G H I J K L M N O P Q R S T U V W X Y Z

Moos - Hi tab

you need 3 people to play this song.An acoustic guitar 6 string electric guitar and a 12 
electric you also need a whammy bar.If you are a loner but have these guitars
i suggest you get 2 guitar stands and put 2 of the guitars on them and just
play them one by one.have fun.
                         Acoustic intro
e-----------------------------------------------------------|
a-----------------------------------------------------------|
d-----------4--5-7------7-----------------------------------|
g--------------------5----------8--9------------------------|
b-----------------------------------------------------------|
e-----------------------------------------------------------|
                          12 string

-----------------------------------------0------------------|
-----------------------------------------0------------------|
-----------------------------------------0------------------|
-----------------------------------------0------------------|
----------------------------12------------------------------|
----------------------------12------------------------------|

---------------12--13-14-15---------------------------------|
---------------12-------------------------------------------|
------------10---------------------------------5------------|
------------10------------------------------------8---------|
------------------------------------------------------------|
-----------------------4------------------------------------|
                              Acoustic
e-----------------------------------------------------------|
a-----------------------------------------------------------|
d-----------------------------------------------------------|
g-------------6---7-8-----0---0--0--5-----------------------|
b----------------------0----0--0--0---7---------------------|
e-----------------------------------------------------------|
                      electric and acoustic (same time)
e-----------------------------------------------------------|
a-----------------------------------------------------------|
d-----------------------------------------------------------|
g------5-----5-------0--------------------------------------|
b----3---3--3-------0---------------------------------------|
e----3-----0-------0----------------------------------------|
                       12 string
------------------------------------------------------------|
------------------------------------------------------------|
-----0-------------------7----------------------------------|
-------0----------------------------------------------------|
---------0--------------------------------------------------|
------------------------------------------------------------|

----------0-------8-----------------------------------------|
--------------5----------------------9----------------------|
----------------------------6-------8-----------------------|
-------------------6----------------------------------------|
------------------------------0--0--------------------------|
----------------------------0---0-0-------------------------|
                             electric
e-----------------------------------------------------------|
a-----------------------------0-----------15----------------|Whammy (15)
d-----------------------------0-----14----------------------|
g-----------------------------0-----------------------------|
b--------------------------10-------------------------------|
e-------15-----16-----18------------------------------------|Whammy (16)
                            acoustic
e-----------------------------------------------------------|
a-----------------------------------------------------------|
d----------8----------------0-------------------------------|
g---------------------------0-------------------------------|
b-------7-----9-------------0-------------------------------|
e-----6-----------------------------------------------------|
                            electric solo
e-----------------------------------------------------------|
a-----------------------------------------------------------|
d-----------------10-------17-------------------------------|
g---------13--------0-----15--13-------------2--------------|
b-------------16-----0---14-----18---12----4------0---------|
e----17-----------------12---------------5----------0-------|
                            12 string
------------------------------------------------------------|
------------------------------------------------------------|
------------------------------------------------------------|
------------------------------------------------------------|
------------------------------------------------------------|
------------------------------------------------------------|

------------------------------------------------------------|
------------------12----------------0-----------------------|
--------------15--------------------------------------------|
--------------------7------12-------------------------------|
----------------------9---------0-0-------------------------|
--------------------------10----0-0-------------------------|
Tap to rate this tab
 
# A B C D E F G H I J K L M N O P Q R S T U V W X Y Z