Song name
# A B C D E F G H I J K L M N O P Q R S T U V W X Y Z

Mor Ve Otesi - Sevda Cicegi tab

E||---------------------|--------------------|-----------------|-----------------|
B||---------------------|--------------------|-----------------|-----------------|
G||---------------------|--------------------|-----------------|-----------------|
D||---------------------|--------------------|-----------------|-----------------|
A||---------------------|--------------------|-----------------|-----------------|
E||-12-0-0-12-0-12-10-9-|-10-0-0-10-0-10-9-7-|-9-0-0-9-0-9-7-6-|-7-0-0-7-0-0-7-6-|



|-----------------|-----------------|-----------------|----||---------------------|
|-----------------|-----------------|-----------------|----||---------------------|
|-----------------|-----------------|-----------------|----||*--------------------|
|-----------------|-----------------|-------8-9-8-5-4-|-2~-||*--------------------|
|-----------------|-----------------|-----------------|----||---------------------|
|-7-0-0-7-0-7-6-3-|-6-0-0-6-0-6-3-2-|-3-0-0-6-7-6-3-2-|-0~-||-12-0-0-12-0-12-10-9-|



--------------------|-----------------|------------------|-----------------|-----------------|
--------------------|-----------------|------------------|-----------------|-----------------|
--------------------|-----------------|------------------|-----------------|-----------------|
--------------------|-----------------|------------------|-----------------|-----------------|
--------------------|-----------------|------------------|-----------------|-----------------|
-10-0-0-10-0-10-9-7-|-9-0-0-9-0-9-7-6-|-7-0-0-3-----6----|-7-0-0-7-0-7-6-3-|-6-0-0-6-0-6-3-2-|



-----------------|--------------------||
-----------------|--------------------||
-----------------|-------------------*||
-------8-9-8-5-4-|-2~----------------*||
-----------------|--------------------||
-3-0-0-6-7-6-3-2-|-0~-----------------||
Tap to rate this tab
 
# A B C D E F G H I J K L M N O P Q R S T U V W X Y Z