Song name
# A B C D E F G H I J K L M N O P Q R S T U V W X Y Z

Mor Ve Otesi - Bir Derdim Var tab

                                                                         
E||----------------------------------|----------------------------------|
B||--------------14--15--14----------|--------------14--15--14----------|
G||----------16--------------16------|----------16--------------16------|
D||------16----------------------16--|------16----------------------16--|
A||--14------------------------------|--14------------------------------|
E||----------------------------------|----------------------------------|


                                                                      
----------------------------------|----------------------------------|
--------------14--15--14----------|--------------14--15--14----------|
----------16--------------16------|----------16--------------16------|
------16----------------------16--|------16----------------------16--|
--14------------------------------|--14------------------------------|
----------------------------------|----------------------------------|


                                                                      
----------------------------------|----------------------------------|
--------------14--15--14----------|--------------14--15--14----------|
----------16--------------16------|----------16--------------16------|
------16----------------------16--|------16----------------------16--|
--14------------------------------|--14------------------------------|
----------------------------------|----------------------------------|


                                                                      
----------------------------------|----------------------------------|
--------------14--15--14----------|--------------14--15--14----------|
----------16--------------16------|----------16--------------16------|
------16----------------------16--|------16----------------------16--|
--14------------------------------|--14------------------------------|
----------------------------------|----------------------------------|


                                                                      
----------------------------------|----------------------------------|
--------------14--15--14----------|--------------14--15--14----------|
----------16--------------16------|----------16--------------16------|
------16----------------------16--|------16----------------------16--|
--14------------------------------|--14------------------------------|
----------------------------------|----------------------------------|


                                                                      
----------------------------------|----------------------------------|
--------------14--15--14----------|--------------14--15--14----------|
----------16--------------16------|----------16--------------16------|
------16----------------------16--|------16----------------------16--|
--14------------------------------|--14------------------------------|
----------------------------------|----------------------------------|


                                                                      
----------------------------------|----------------------------------|
--------------14--15--14----------|--------------14--15--14----------|
----------16--------------16------|----------16--------------16------|
------16----------------------16--|------16----------------------16--|
--14------------------------------|--14------------------------------|
----------------------------------|----------------------------------|


                                                                                
----------------------------------|----------------------------------|----|----|
--------------14--15--14----------|----------------------------------|----|----|
----------16--------------16------|----------16----------14--16--14--|----|----|
------16----------------------16--|------16------16------------------|----|----|
--14------------------------------|--14--------------14--------------|----|----|
----------------------------------|----------------------------------|----|----|


                                                                           
----|----|----|----|----|----|----|----|----|----|------------------------|
----|----|----|----|----|----|----|----|----|----|------------------------|
----|----|----|----|----|----|----|----|----|----|--------------14--16-14-|
----|----|----|----|----|----|----|----|----|----|------------------------|
----|----|----|----|----|----|----|----|----|----|------------------------|
----|----|----|----|----|----|----|----|----|----|------------------------|


                                                                           
------------------------|------------------------|------------------------|
------------------------|------------------------|------------------------|
--------------14--16-14-|--------------14--16-14-|--------------14--16-14-|
------------------------|------------------------|------------------------|
------------------------|------------------------|------------------------|
------------------------|------------------------|------------------------|


                                                                           
------------------------|------------------------|------------------------|
------------------------|------------------------|------------------------|
--------------14--18-14-|--------------14--16-14-|--------------14--18-14-|
------------------------|------------------------|------------------------|
------------------------|------------------------|------------------------|
------------------------|------------------------|------------------------|


                                                                                
------------------------|----|----|----|----|----------------------------------|
------------------------|----|----|----|----|--------------14--15--14----------|
--------------14--16-14-|----|----|----|----|----------16--------------16------|
------------------------|----|----|----|----|------16----------------------16--|
------------------------|----|----|----|----|--14------------------------------|
------------------------|----|----|----|----|----------------------------------|


                                                                      
------------------14--------------|----------------------------------|
--17--15--14----------17--15--14--|--15--------------15--------------|
--------------16------------------|----------------------------------|
----------------------------------|------17--16--17------17--16--17--|
----------------------------------|----------------------------------|
----------------------------------|----------------------------------|


                                                                          
--------------------------------------|----------------------------------|
--14----------------------------------|--------------14--15--14----------|
----------16--------------------------|----------16--------------16------|
------17------17--19-17-16--17-16-14--|------16----------------------16--|
--------------------------------------|--14------------------------------|
--------------------------------------|----------------------------------|


                                                                      
------------------14--------------|----------------------------------|
--17--15--14----------17--15--14--|--15--------------15--------------|
--------------16------------------|----------------------------------|
----------------------------------|------17--16--17------17--16--17--|
----------------------------------|----------------------------------|
----------------------------------|----------------------------------|


                                                                          
--------------------------------------|----------------------------------|
--14----------------------------------|--------------14--15--14----------|
----------16--------------------------|----------16--------------16------|
------17------17--19-17-16--17-16-14--|------16----------------------16--|
--------------------------------------|--14------------------------------|
--------------------------------------|----------------------------------|


                                                                      
----------------------------------|----------------------------------|
--------------14--15--14----------|--------------14--15--14----------|
----------16--------------16------|----------16--------------16------|
------16----------------------16--|------16----------------------16--|
--14------------------------------|--14------------------------------|
----------------------------------|----------------------------------|


                                                                      
----------------------------------|----------------------------------|
--------------14--15--14----------|--------------12--14--12----------|
----------16--------------16------|----------14--------------14------|
------16----------------------16--|------14----------------------14--|
--14------------------------------|--12------------------------------|
----------------------------------|----------------------------------|


                                                                      
----------------------------------|----------------------------------|
--------------12--14--12----------|--------------12--14--12----------|
----------14--------------14------|----------14--------------14------|
------14----------------------14--|------14----------------------14--|
--12------------------------------|--12------------------------------|
----------------------------------|----------------------------------|


                                                                      
----------------------------------|--------------14--15--14----------|
--17--15--14------14------14--15--|----------17--------------17------|
--------------16------16----------|------16----------------------16--|
----------------------------------|--14------------------------------|
----------------------------------|----------------------------------|
----------------------------------|----------------------------------|


                                                                      
--------------14--15--14----------|--------------14--15--14----------|
----------17--------------17------|----------17--------------17------|
------16----------------------16--|------16----------------------16--|
--14------------------------------|--14------------------------------|
----------------------------------|----------------------------------|
----------------------------------|----------------------------------|


                                                                      
--------------14--15--14----------|----------------------------------|
----------17--------------17------|--------------14--15--14----------|
------16----------------------16--|----------16--------------16------|
--14------------------------------|------16----------------------16--|
----------------------------------|--14------------------------------|
----------------------------------|----------------------------------|


                                                                      
----------------------------------|----------------------------------|
--------------14--15--14----------|--------------14--15--14----------|
----------16--------------16------|----------16--------------16------|
------16----------------------16--|------16----------------------16--|
--14------------------------------|--14------------------------------|
----------------------------------|----------------------------------|


                                                                           
----------------------------------|----|----|----|----|----|----|----|----|
--12--14--14--15--15--17--17--19--|----|----|----|----|----|----|----|----|
----------------------------------|----|----|----|----|----|----|----|----|
----------------------------------|----|----|----|----|----|----|----|----|
----------------------------------|----|----|----|----|----|----|----|----|
----------------------------------|----|----|----|----|----|----|----|----|


                                                                        
------------------|----|------------------|----|------------------|----|
------------------|----|------------------|----|------------------|----|
------------------|----|------------------|----|------------------|----|
------------------|----|------------------|----|------------------|----|
------------------|----|------------------|----|------------------|----|
------------------|----|------------------|----|------------------|----|


                                                                
------------------|----|----|----|----|----|----|----|----|----|
------------------|----|----|----|----|----|----|----|----|----|
------------------|----|----|----|----|----|----|----|----|----|
------------------|----|----|----|----|----|----|----|----|----|
------------------|----|----|----|----|----|----|----|----|----|
------------------|----|----|----|----|----|----|----|----|----|


                                                                            
-----------------------|---------------------------|-----------------------|
-----------------------|---------------------------|-----------------------|
-----------------------|---------------------------|-----------------------|
--2--------12~-----11~-|--11~-9~-9~-7~-7~-5~-5~-4~-|--5--------12~-----11~-|
--2--------------------|---------------------------|--5--------------------|
--0--------------------|---------------------------|--3--------------------|


                                                                     
--------------------------|--------------------|-------------------||
--------------------------|--------------------|-------------------||
--------------------------|--------------------|-------------------||
--11~-9~-9~---11~---12~---|--11~---------------|--9~---------------||
--------------------------|--------------------|-------------------||
--------------------------|--------------------|-------------------||

Tap to rate this tab
 
# A B C D E F G H I J K L M N O P Q R S T U V W X Y Z