Song name
# A B C D E F G H I J K L M N O P Q R S T U V W X Y Z

Mor Ve Otesi - Re tab

Help us improve GuitareTab! Take a short survey!
 D

----10-------12------14------9--10-9-10-----|
-------10------10------10----10-10-1010-----|
-11-------11-----11-------11----------------|
-0------------------------------------------|
--------------------------------------------|
--------------------------------------------|

 G                                    A          F#

----15------15------14---12----12-----9--9-10-12--6-6-7-|
------12------12----12------15----15--10----------7-----|
-12------12-----12--------------------9-----------6-----|
--------------------------------------------------------|
--------------------------------------------------------|
--------------------------------------------------------|
<<<<<<<<<<<<<<<<<<<<<<<<<<<<<<<<<<<<<<<<<<<<<<<<<<<<<<<<<<

-----------------------------------0-----2------|
--------3-----------3----------0------0----0----|
------0---0-------0---0------0---0--------------|
---4------------4----------2--------------------|
-2------------0----------2----------------------|
------------------------------------------------|
''YINE BEN MIYIM DUSEN
-----------------------------------------------|
-------2----------2----------3----------3------|
-----3---3------3---3------0---0------0---0----|
---4----------4----------4----------4----------|
-4----------4----------2----------0------------|
-----------------------------------------------|
HI ZAMANIM DA YOKKI''

YINE BEN KOPUP GELEN
BILMEDIIM EY YOKKI


D                   G
YINE DE GELDIM DNYAYA
A    F#         Bm
HI ZAMANIM DA YOKKI

YINE DE GELDIM DNYAYA
HI YOK

distortion
Bm   A     G    F#
IIM YANAR IIM BILMEZ
Em   F#  G    A
IIM VAR IIM DSNMEZ

IIM ASK IIM DEGISMEZ
IIM SAF IIM KIRLENMEZ
Related for Re tab