Mora Trask - Du Ska Fa Min Gamla Cykel tab

E---------------------------------------------------------------|
B---------------------------------------------------------------|
G---------------------------------------------------------------|
D--0--2--5-5-5-5--2--0-----0--5---------------------------------|
A----------------------2----------------------------------------|
E---------------------------------------------------------------|

E---------------------------------------------------------------|
B---------------------------------------------------------------|
G---------------------------------------------------------------|
D--5--7--9-9-9-9--12--9--7--5--7--------------------------------|
A---------------------------------------------------------------|
E---------------------------------------------------------------|

E---------------------------------------------------------------|
B---------------------------------------------------------------|
G---------------------------------------------------------------|
D--12--10--9-9-9-9--7--5---5-5----------------------------------|
A---------------------------------------------------------------|
E---------------------------------------------------------------|

E---------------------------------------------------------------|
B---------------------------------------------------------------|
G-----------2--0-----------------4--2--------0------------------|
D--2-2-2-2--------4--2--0-0-0-0--------4--0---------------------|
A---------------------------------------------------------------|
E---------------------------------------------------------------|


//Lordhelmet
Tap to rate this tab
 
# A B C D E F G H I J K L M N O P Q R S T U V W X Y Z