Song name
# A B C D E F G H I J K L M N O P Q R S T U V W X Y Z

Moral Decay - Unfinshed Story tab

Help us improve GuitareTab! Take a short survey!
                       
  
Moral Decay

Unfinished Story

Tabbed by: Zach Galli
 
Tuning:Standard
                           


                    Intro-1st Verse Play six times.....Clean
e|-------------------------------------------------------------------------|
B|-------------------------------------------------------------------------|
G|-------------------------------------------------------------------------|
D|--2--2--2--2--2--2--2--2-------------------------------------------------|
A|-------------------------2--2--2--2--2--2--2--2--5--5--5--5--5--5--5--5--|
E|-------------------------------------------------------------------------|

e|-------------------------------------------------------------------------|
B|-------------------------------------------------------------------------|
G|-------------------------------------------------------------------------|
D|--7--7--7--6--7--6--2----------------------------------------------------|
A|-------------------------------------------------------------------------|
E|-------------------------------------------------------------------------|
                            





        (Distortion Comes On)verse 2 play just like verse 1 but in these chords. 
    x8   x8   x8   Play till chorus most is muted
e|-------------------------------------------------------------------------|
B|-------------------------------------------------------------------------|
G|--2-----------------7--7--7--6--7--6-------------------------------------|
D|--2----2----5-------7--7--7--6--7--6-------------------------------------|
A|--0----2----5-------5--5--5--4--5--4-------------------------------------|
E|-------0----3------------------------------------------------------------|



                                
                          

                         Chorus...Play twice 
    x8   x8   x1   x8                 
e|-------------------------------------------------------------------------|
B|-------------------------------------------------------------------------|
G|--2----4----5----7----7----7----7----6----7----6-------------------------|
D|--2----4----5----7----7----7----7----6----7----6-------------------------|
A|--0----2----3----5----5----5----5----4----5----4-------------------------|
E|-------------------------------------------------------------------------|
    x8   x8   x1   x8         
e|-------------------------------------------------------------------------|
B|-------------------------------------------------------------------------|
G|--2-------------------7----7----7----6----7----6-------------------------|
D|--2----2----4----5----7----7----7----6----7----6-------------------------|
A|--0----2----4----5----5----5----5----4----5----4-------------------------|
E|-------0----2----3-------------------------------------------------------|
          


Thats all I could get. Pretty sure that the really fast part is just the same as the 2nd verse. 
Related for Unfinshed Story tab