Moravagine - Cos Come Sei tab

Chorus

(guitar 1)
E-------------------------------------|
B-------------------------------------|
G----------------------------66666666-|
D-66666666-11111111-33333333-66666666-|
A-66666666-11111111-33333333-44444444-|
D-66666666-11111111-33333333----------|

(guitar 2)
E---------------------------|
B---------------------------|
G---------------------------|
D-11-10-8--8-10-11--8-6-8-6-|
A---------------------------|
D---------------------------|

Verse

E---------------------------|
B-9-9---9-9---11-11---------|
G-8-8---8-8---10-10---------|
D-6-6---6-6---8 -8 ---------|
A---------------------------|
D---------------------------|

Variation

(clean)
E--------------|
B--------------|
G-----5--------|
D-------6------|
A---4----------|
D--------------|
Tap to rate this tab
 
# A B C D E F G H I J K L M N O P Q R S T U V W X Y Z