Moravagine - In Ogni Singola Occasione tab

Tabbed by: Siripunk89


Intro
       Guitar 1 (x2)         Guitar 2
E----------------------------------------------|
B----------------------------------------------|
G----------------------------------------------|
D--------------------------6/8888/666-66-99-88-|
A--6/9999/888-66-88-99-------------------------|
D----------------------------------------------|

Chorus

(guitar 1)
E---------------------------------------------|
B---------------------------------------------|
G--------------------4444444444444444---------|
D--11111111-44444444-4444444444444444---------|
A--11111111-44444444-2222222222222222---------|
D--11111111-44444444--------------------------|

(guitar 2)
E---------------------|
B---------------------|
G---------------------|
D-6/8888/666-66-99-88-|
A---------------------|
D---------------------|

Verse
E-------------------------|
B-------------------------|
G-------------------------|
D--4/6-6--4X4/6-6---------|
A--2/4-4--4X4/6-6---------|
D---------4X4/6-6--(0)(0)-|


E------------------------------------|
B------------------------------------|
G------------------------------------|
D--11-1-1-1-------------11-1-1--4--3-|
A--11-1-1-1-------------11-1-1--4--3-|
D--11-1-1-1-1-3-4-4-3-4-11-1-1--4--3-|
Tap to rate this tab
 
# A B C D E F G H I J K L M N O P Q R S T U V W X Y Z