Song name
# A B C D E F G H I J K L M N O P Q R S T U V W X Y Z

Moravagine - Vizi tab

Help us improve GuitareTab! Take a short survey!
Titolo: Vizi
Autore: Moravagine
Tab by: Bonny


Riff1

   1 + 2 + 3 + 4 + 1 + 2 + 3 + 4 + 1 + 2 + 3 + 4 + 1 + 2 + 3 + 4 +
E-------------------------------------------------------------------|
B-------------------------------------------------------------------|
G--8-x-x-x-x-x-x-x-7-x-x-x-x-x-x-x-5-x-x-x-x-x-x-x-8-x-x-x-x-x-x-x--|
D--8-x-x-x-x-x-x-x-7-x-x-x-x-x-x-x-5-x-x-x-x-x-x-x-8-x-x-x-x-x-x-x--|
A--6-x-x-x-x-x-x-x-5-x-x-x-x-x-x-x-3-x-x-x-x-x-x-x-6-x-x-x-x-x-x-x--|
E-------------------------------------------------------------------|

   1 + 2 + 3 + 4 + 1 + 2 + 3 + 4 + 1 + 2 + 3 + 4 + 1 + 2 + 3 + 4 +
E-------------------------------------------------------------------|
B-------------------------------------------------------------------|
G--8-x-x-x-x-x-x-x-7-x-x-x-x-x-x-x-5-x-x-x-x-x-x-x-8----------------|
D--8-x-x-x-x-x-x-x-7-x-x-x-x-x-x-x-5-x-x-x-x-x-x-x-8----------------|
A--6-x-x-x-x-x-x-x-5-x-x-x-x-x-x-x-3-x-x-x-x-x-x-x-6----------------|
E-------------------------------------------------------------------|

Riff2

   1 + 2 + 3 + 4 + 1 + 2 + 3 + 4 + 1 + 2 + 3 + 4 + 1 + 2 + 3 + 4 +
E-------------------------------------------------------------------|
B-------------------------------------------------------------------|
G--8-8-8-8-8-8-8-8-7-7-7-7-7-7-7-7-5-5-5-5-5-5-5-5-8-8-8-8-8-8-8-8--|
D--8-8-8-8-8-8-8-8-7-7-7-7-7-7-7-7-5-5-5-5-5-5-5-5-8-8-8-8-8-8-8-8--|
A--6-6-6-6-6-6-6-6-5-5-5-5-5-5-5-5-3-3-3-3-3-3-3-3-6-6-6-6-6-6-6-6--|
E-------------------------------------------------------------------|

   1 + 2 + 3 + 4 + 1 + 2 + 3 + 4 + 1 + 2 + 3 + 4 + 1 + 2 + 3 + 4 +
E-------------------------------------------------------------------|
B-------------------------------------------------------------------|
G--8-8-8-8-8-8-8-8-7-7-7-7-7-7-7-7-5-5-5-5-5-5-5-5-8-8-8-8-8-8-8-8--|
D--8-8-8-8-8-8-8-8-7-7-7-7-7-7-7-7-5-5-5-5-5-5-5-5-8-8-8-8-8-8-8-8--|
A--6-6-6-6-6-6-6-6-5-5-5-5-5-5-5-5-3-3-3-3-3-3-3-3-6-6-6-6-6-6-6-6--|
E-------------------------------------------------------------------|

Riff3

   1 + 2 + 3 + 4 + 1 + 2 + 3 + 4 + 1 + 2 + 3 + 4 + 1 + 2 + 3 + 4 +
E-------------------------------------------------------------------|
B-------------------------------------------------------------------|
G--8---10--12----12--------8-------12--10---8----8-12------8--------|
D--8---10--12----1210x-x-x-8-------12--10---8----8-10x-x-x-8--------|
A--6---8---10----1010x-x-x-6-------10--8----6----6-10x-x-x-6--------|
E------------------8-x-x-x-------------------------8-x-x-x----------|

   1 + 2 + 3 + 4 + 1 + 2 + 3 + 4 + 1 + 2 + 3 + 4 + 1 + 2 + 3 + 4 +
E-------------------------------------------------------------------|
B-------------------------------------------------------------------|
G--8---10--12----12--------8-------12--10---8----8-12------8--------|
D--8---10--12----1210x-x-x-8-------12--10---8----8-10x-x-x-8--------|
A--6---8---10----1010x-x-x-6-------10--8----6----6-10x-x-x-6--------|
E------------------8-x-x-x-------------------------8-x-x-x----------|


Ordine:

Riff1
Riff2
Riff3
Riff2
Riff3
Related for Vizi tab