Song name
# A B C D E F G H I J K L M N O P Q R S T U V W X Y Z

Morbid Angel - World Of Shit tab

Title:world of shit
Artist:morbid angel 
Album:covenant

Version 1.1

Tabbed by sytry
Send any comments or corrections to: sytry@lombardiacom.it

============================================================================
Notation: b = full bend         / = slide up            a.h. = artificial
          r = release		\ = slide down		       harmonic	
          ~ = vibrato		h = hammer-on		tr = trillo
	  . = palm mute(pm)	p = pull-off            t = tapping              
============================================================================                             
Tuning: Eb Bb Gb Db Ab Eb Bb



|---------------------------------------------------------------------------|
|13-14/17--14-17-18--17-18-20--21br-20-(21)20--21/23/21--20h21p20--18-17----|
|---------------------------------------------------------------------------|
|---------------------------------------------------------------------------|
|---------------------------------------------------------------------------|
|---------------------------------------------------------------------------|



|---------------------------------------------------------------------------|
|-18-20-18h20h21--20-----------------(17)/7-8-11---/19-18-19-15-18-19-18-19-|
|----------------------/3----/12-13-----------------------------------------|
|---------------------------------------------------------------------------|
|---------------------------------------------------------------------------|
|---------------------------------------------------------------------------|


                                     t
|---------------------------------------------------------------------------|
|-18-15-18-15-14-15-14--14/12/14----21a.h.----------------------------------|
|---------------------------------------------------------------------------|
|---------------------------------------------------------------------------|
|---------------------------------------------------------------------------|
|---------------------------------------------------------------------------|


fast part
|----------------------------------------------21p18----18-21p18----18--21~-|
|----------------------------------------------------20----------20---------|
|-------------------------12-13-15------------------------------------------|
|-------------------13-15---------------------------------------------------|
|----------13-15-16---------------------------------------------------------|
|-13-15-16------------------------------------------------------------------|
i don't tab note but just the scale...              end with this
Tap to rate this tab
# A B C D E F G H I J K L M N O P Q R S T U V W X Y Z