Song name
# A B C D E F G H I J K L M N O P Q R S T U V W X Y Z

Morcheeba - World Looking In chords

Highlighted       Show chord diagrams
Em7                    Bm
  Angels
Em7       Bm          Em7    Bm   Em7   Bm
  Smiling on my happiness
Em7        Bm
  Danger
Em7           Bm               Em7
  'Cause the scene is still a mess
 Bm            Em7     Bm
(We can all be blast)


Chorus(play twice):

Em7        D
Don't stop just yet
G                A            Em7
  We've got the world looking in
                                 e-------------12---|
                                 B---12\10--8-------|
                                 G------------------|

Bm     Em7    Bm
  Our window
             e-----------------|
             B---12\10--8------|
             G-------------9---|


Em7      Bm
  Spacecraft
Em7        Bm            Em7     Bm   Em7   Bm
  Spinning slowly out of sight
Em7      Bm
  Peace man
Em7       Bm                Em7
  Keep on chasing the wrong guy
 Bm               Em7     Bm
(We'll see eye to eye)


Repeate chorus


Solo:  Em           G         D                        Em7     Bm
e-----------------------8/10-----               e---10/12---|
B---10/12--10--8--8/12--------10-  4x,   then   B-----------|
G--------------------------------               G-----------|

    Em7  Bm  Em7  Bm  Em7  Bm  Em7  Bm  Em7  Bm  Em7  Bm  Em7


Repeate chorus 


Instr.:  Em7  Bm  Em7  Bm  Em7  Bm  Em7  Bm


Solo: Em7      Bm        Em7       Bm
   e------------------------------------------|
   B-----------------------------9/12--10--8--|
   G---9--9--9/12--9--9----9--9---------------|
   D------------------------------------------|
               twice at the same time
   e------------------------------------------|
   B------------------------------------------|
   G-----------------------------1/4----2--0--|
   D---2--2--2/5---2--2----2--2---------------|


Solo: Em7      Bm         Em7      Bm
   e------------------------------------------|
   B------------------------------------------|
   G------------------------------------------|
   D---9--9--9/12--9--9----9--9--9/14--12--9--|
               twice at the same time
   e------------------------------------------|
   B------------------------------------------|
   G-----------------------------1/4----2--0--|
   D---2--2--2/5---2--2----2--2---------------|


Solo: Em7      Bm            Em7       Bm
   e----------------------------------------------------|
   B----------------------------------------------------|
   G---9--9--9/12--9--9--9/12--9--9--9/12--9--9--9/12---|
   D----------------------------------------------------|
                     at the same time
   e----------------------------------------------------|
   B----------------------------------------------------|
   G---------------------------------1/4---2--0---------|
   D---2--2--2/5---2--2--------2--2---------------------|


Solo: Em7      Bm            Em7       Bm          . . .
   e----------------------------------------------------|
   B------------------------------------------8/17------|
   G---9--9--9/12--9--9--9/12--9--9--9/12--9------------|
   D----------------------------------------------------|
                      at the same time
   e----------------------------------------------------|
   B----------------------------------------------------|
   G---------------------------------1/4---1--4---------|
   D---2--2--2/5---2--2--------2--2---------------------|
Tap to rate this tab
# A B C D E F G H I J K L M N O P Q R S T U V W X Y Z