Morcheeba - Au Dela tab

An easy and superb song, tabbed by Patashnik.
email:b14ckb14ck@yahoo.com

Capo on fret 1

Picking pattern

verse
e|------------------------|
B|---0h1p0--------0-------|
G|------2-----2-------2---|
D|---2-----2--------------|
A|------------------------|
E|------------------------|

chorus
e|--0---------3---------0---------------------|
B|----1---------3---------0-----0h1p0---------|
G|------2---------0---------0------0----------|
D|--3-----3---0-----0---------0------2--------|
A|----------------------2-------2------2------|
E|--------------------------------------------|
Do something similar while playing the rest of the chords.

Chords are


verse
Am
Je vis, je meurs
Je ris, je pleure

F
Je vide de la mer
Am
Je vide de la terre
F
Je le dis aux fleurs
Am
Au lac de vapeur

     F            G       Em
Au ciel de toutes les couleurs
     F            Em      Am
Ton soleil réchauffe mon cœur
     F            G       Em
Au ciel de toutes les couleurs
     F            Em        Am
Ton soleil réchauffe mon cœur

And so forth.

Lyrics 

Je vis, j'ai peur
Je crie de douleurs
En secret je m'enterre
Je cherche la chaleur
Je m'enfuis dans les airs
Au-delà de la terre

Au ciel de toutes les couleurs
Ton soleil réchauffe mon cœur
Au ciel de toutes les couleurs
Ton soleil réchauffe mon cœur
Au ciel de toutes les couleurs
Ton soleil réchauffe mon cœur

Ton soleil réchauffe mon cœur
Tap to rate this tab
 
# A B C D E F G H I J K L M N O P Q R S T U V W X Y Z