Song name
# A B C D E F G H I J K L M N O P Q R S T U V W X Y Z

Morcheeba - Diggin A Watery Grave tab

I felt like this amazing song from one great band should be tabbed. 
I ain't have perfect ears so please be kind, this is "close" to the original
 song but not exact. Feel free to do a better job and share it with everyone.


|-----^10-14---^13-12---^10-7----------------------------|
|-0-----------------------------^7-10-5--0-0-0--0-0---3--|
|---------------------------------------------------2----|
|--------------------------------------------------------|
|--------------------------------------------------------|
|--------------------------------------------------------|


|-------------------------|
|-5--0-0-0--0-0---0-------|
|---------------2---------|
|-------------------------|x3
|-------------------------|
|-------------------------|



|------7-----7---^10-7--^10-7----9-7------------------------------------|
|---^9----^9-------------------------10-7---12-10-----------------------|
|-------------------------------------------------11--9-----9p7-9-------|
|-------------------------------------------------------9---------9-----|
|-----------------------------------------------------------------------|
|-----------------------------------------------------------------------|



|-^10^10-7-----7---/11-7----10---14-17--14-12-10-7----------^10-7-------|
|-----------10-----------10---------------------------^9-7--------------|
|-----------------------------------------------------------------------|
|-----------------------------------------------------------------------|
|-----------------------------------------------------------------------|
|-----------------------------------------------------------------------|
Tap to rate this tab
# A B C D E F G H I J K L M N O P Q R S T U V W X Y Z