Song name
# A B C D E F G H I J K L M N O P Q R S T U V W X Y Z

Morcheeba - Enjoy The Ride tab

I'm not sure for 100% but it sounds good ;] it's easier with capo on 3th fret :) 


e|---------6-----------3----|
h|------------3-------------|
g|--------------------------| x4
d|-------5-----------5------|
A|---3h5---------3h5--------|
E|--------------------------|


e|----------3-------------6-------------3--------------5-----------------|
h|-----------4--------------3-------------4--------------6----------(3)--|
g|-------5-----5----------------------3-----3-------3------3-------3-----| 
d|-----5---------------5------------5-------------3--------------5-------|
A|---3-------------3h5------------6-------------5--------------5---------|
E|-----------------------------------------------------------------------|


Best regards, Trigger 
Tap to rate this tab
# A B C D E F G H I J K L M N O P Q R S T U V W X Y Z