Guitaretab - guitar tabs
Song name
# A B C D E F G H I J K L M N O P Q R S T U V W X Y Z

Morda - Sudden Tears Fall tab

Morda - Sudden tears fall


3rd,4th and 5th time without 5-3-4-5
E|-------------------------------------------------------|
B|-------------------------------------------------------|
G|-------------------------------------------------------|
D|--5-5-------------5-5------------1-1--------3-3--------|
A|--5-5---5-3-4-3---5-5---5-3-4-3--1-1--6-5-3-3-3-4-3-2--|
D|--5-5-------------5-5------------1-1--------3-3--------|


E|---------------------------------------------|
B|---------------------------------------------|
G|---------------------------------------------|
D|---------5-------5----1-1---------3-3--------|
A|---------5-------5----1-1--6-5-3--3-3--4-3-2-|
D|---55555-5--5555-5----1-1---------3-3--------|

[ Tab from: http://www.guitaretab.com/m/morda/79359.html ]
Iím not sure of this, but itís something like this
E|------------------------------------------------------------------------|
B|------------------------------------------------------------------------|
G|------------------------------------------------------------------------|
D|------------------------------------------------------------------------| 
A|8888-5555-7777-4444--8888-5555-7777-44444-88888888888888-5555-7777-4444-| 
D|------------------------------------------------------------------------|

    P.M...................................
E|------------------------------------------|
B|------------------------------------------|
G|------------------------------------------|
D|--0-00--0-00--0-00--0-00---1-11--1-11--3--|x4
A|--0-00--0-00--0-00--0-00---1-11--1-11--3--|
D|--0-00--0-00--0-00--0-00---1-11--1-11--3--|

E|----------------------------------------------------------|
B|----------------------------------------------------------|
G|0--0-2--2-3---3-2-0---------------------------------------|
D|--0----0-----0--------3-------3--3------------------------|
A|---------------------------1-1-1----1-----------3-1-0-----|
D|------------------------------------------1-1-1-----------|



    P.M...................................
E|------------------------------------------|
B|------------------------------------------|
G|------------------------------------------|
D|--0-00--0-00--0-00--0-00---1-11--1-11--3--|x4
A|--0-00--0-00--0-00--0-00---1-11--1-11--3--|
D|--0-00--0-00--0-00--0-00---1-11--1-11--3--|




This is all that I know, if you have corrections send it to tgitaristje@hotmail.com

www.morda.be
Related for Sudden Tears Fall tab