Song name
# A B C D E F G H I J K L M N O P Q R S T U V W X Y Z

Mordecai - Between The Buried And Me tab

.  - palm mute
/  - slide up and down to
b  - Bend
*  - Pinch harmonic
h  - Hammer
p  - Pull off
"  - Tremolo Picking

Tuning:(C# F#  B  E G# C#)

Guitar 1:           Guitar 2:
C#|------12------|| C#|------15------||
G#|------11------|| G#|------14------||
 E|------10------||  E|------13------||
 B|------9-------||  B|------12------||
F#|--------------|| F#|--------------||
C#|--------------|| C#|--------------||

Guitar Left:
C#|-------------------------------------------------------||
G#|-------------------------------------------------------||
 E|-------------------------------------------------------||
 B|-------------------------------------------------------||
F#|--3h6p3-------4h7p4-------3h6p3-------2h3p2h3p2h3p2h3--||
C#|--------00000-------00000-------00000------------------||
           .....       .....       .....

Guitar Right:
C#|----------------------------------------------------------||
G#|----------------------------------------------------------||
 E|----------------------------------------------------------||
 B|----------------------------------------------------------||
F#|----------------------------------------------------------||
C#|--8h11p8-00000-9h12p9-00000-8h11p8-00000-7h8p7h8p7h8p7h8--||
            .....        .....        .....

Guitar Left:
C#|------------------------------------------------||
G#|------------------------------------------------||
 E|------------------------------------------------||
 B|---------------------------------------5--4--3--||
F#|--3h6p3-------4h7p4-------3h6p3--------5--4--3--||
C#|--------00000-------00000-------00000--3--2--1--||
           .....       .....       .....  .  .  .

Guitar Right:
C#|---------------------------------------------------||
G#|---------------------------------------------------||
 E|---------------------------------------------------||
 B|------------------------------------------5--4--3--||
F#|------------------------------------------5--4--3--||
C#|--8h11p8-00000-9h12p9-00000-8h11p8-00000--3--2--1--||
            .....        .....        .....  .  .  .

Guitar Left:
C#|-------------------------------------------------------||
G#|-------------------------------------------------------||
 E|-------------------------------------------------------||
 B|-------------------------------------------------------||
F#|--3h6p3-------4h7p4-------3h6p3-------2h3p2h3p2h3p2h3--||
C#|--------00000-------00000-------00000------------------||
           .....       .....       .....

Guitar Right:
C#|----------------------------------------------------------||
G#|----------------------------------------------------------||
 E|----------------------------------------------------------||
 B|----------------------------------------------------------||
F#|----------------------------------------------------------||
C#|--8h11p8-00000-9h12p9-00000-8h11p8-00000-7h8p7h8p7h8p7h8--||
            .....        .....        .....

Guitar Left:
C#|------------------------------------------------||
G#|------------------------------------------------||
 E|------------------------------------------------||
 B|---------------------------------------5--4--3--||
F#|--3h6p3-------4h7p4-------3h6p3--------5--4--3--||
C#|--------00000-------00000-------00000--3--2--1--||
           .....       .....       .....  .  .  .

Guitar Right:
C#|---------------------------------------------------||
G#|---------------------------------------------------||
 E|---------------------------------------------------||
 B|------------------------------------------5--4--3--||
F#|------------------------------------------5--4--3--||
C#|--8h11p8-00000-9h12p9-00000-8h11p8-00000--3--2--1--||
            .....        .....        .....  .  .  .

C#|-----------------------------------------------------------------||
G#|-----------------------------------------------------------------||
 E|-----------------------------------------------------------------||
 B|-----------------------------------------------------------------||
F#|--10101010-66-10101010-66-10"-6"-11"-6"-10"-6"-10"-6"-10"-6"-9"--||
C#|-----------------------------------------------------------------||

C#|-----------------------------------------------------------||
G#|-----------------------------------------------------------||
 E|-----------------------------------------------------------||
 B|-----------------------------------------------------------||
F#|-6"-10"-6"-10"-6"-10"-6"-11"-6"-10"-6"-10"-6"-10"-6"-6/9/3-||
C#|-----------------------------------------------------------||

Guitar Left:
C#|-------------------------------------------------------||
G#|-------------------------------------------------------||
 E|-------------------------------------------------------||
 B|-------------------------------------------------------||
F#|--3h6p3-------4h7p4-------3h6p3-------2h3p2h3p2h3p2h3--||
C#|--------00000-------00000-------00000------------------||
           .....       .....       .....

Guitar Right:
C#|----------------------------------------------------------||
G#|----------------------------------------------------------||
 E|----------------------------------------------------------||
 B|----------------------------------------------------------||
F#|----------------------------------------------------------||
C#|--8h11p8-00000-9h12p9-00000-8h11p8-00000-7h8p7h8p7h8p7h8--||
            .....        .....        .....

Guitar Left:
C#|------------------------------------------------||
G#|------------------------------------------------||
 E|------------------------------------------------||
 B|---------------------------------------5--4--3--||
F#|--3h6p3-------4h7p4-------3h6p3--------5--4--3--||
C#|--------00000-------00000-------00000--3--2--1--||
           .....       .....       .....  .  .  .

Guitar Right:
C#|---------------------------------------------------||
G#|---------------------------------------------------||
 E|---------------------------------------------------||
 B|------------------------------------------5--4--3--||
F#|------------------------------------------5--4--3--||
C#|--8h11p8-00000-9h12p9-00000-8h11p8-00000--3--2--1--||
            .....        .....        .....  .  .  .

Guitar Left:
C#|-------------------------------------------------------||
G#|-------------------------------------------------------||
 E|-------------------------------------------------------||
 B|-------------------------------------------------------||
F#|--3h6p3-------4h7p4-------3h6p3-------2h3p2h3p2h3p2h3--||
C#|--------00000-------00000-------00000------------------||
           .....       .....       .....

Guitar Right:
C#|----------------------------------------------------------||
G#|----------------------------------------------------------||
 E|----------------------------------------------------------||
 B|----------------------------------------------------------||
F#|----------------------------------------------------------||
C#|--8h11p8-00000-9h12p9-00000-8h11p8-00000-7h8p7h8p7h8p7h8--||
            .....        .....        .....

Guitar Left:
C#|--------------------------------------------------||
G#|--------------------------------------------------||
 E|--------------------------------------------------||
 B|---------------------------------------5---4---3--||
F#|--3h6p3-------4h7p4-------3h6p3--------5---4---3--||
C#|--------00000-------00000-------00000--3---2---1--||
           .....       .....       .....  .   .   .

Guitar Right:
C#|-----------------------------------------------------||
G#|-----------------------------------------------------||
 E|-----------------------------------------------------||
 B|------------------------------------------5---4---3--||
F#|------------------------------------------5---4---3--||
C#|--8h11p8-00000-9h12p9-00000-8h11p8-00000--3---2---1--||
            .....        .....        .....  .   .   .

C#|----------------------------------------------------------||
G#|----------------------------------------------------------||
 E|----------------------------------------------------------||
 B|----------------------------------------------------------||
F#|--10"-6"-10"-6"-10"-6"-11"-6"-10"-6"-10"-6"-10"-6"-9"-6"--||
C#|----------------------------------------------------------||

C#|-------------------------------------------------------------------------------------------------------------------------------------------------------|
G#|---------------------------------------------------------------------6---------------------------------------------------------------------------------|
 E|--------------------------------------------------------------------------B--------------------------------------------------------7h8p7--6--6789---9--|
F#|--10"-6"-10"-6"-10"-6"-11"-6"-10"-6"-10"-6"-10"-6"-9-8-----7--6----------------------------------------------------------------------------------------|
C#|-------------------------------------------------------------------------------------------------------------------------------------------------------|

C#|------------------------------------------------------||
G#|------------------------------------------------------||
 E|------------------------------------------------------||
 B|--888877776666555544443333--888877776666555544443333--||X2
F#|--666655554444333322223333--666655554444333322223333--||
C#|--666655554444333322221111--666655554444333322221111--||

Guitar 3: only sustain the last harmonic (don't slide) on last time
C#|-------------------------------------------------------------||
G#|-------------------------------------------12-13-14-15--*18/-||
 E|----------7-8-9-10--12-11-10-9--12-13-14-15------------------||
 B|-8-9-10-11---------------------------------------------------||4X
F#|-------------------------------------------------------------||
C#|-------------------------------------------------------------||

C#|---------------------------------------------------------------------------|
G#|---------------------------------------------------------------------------|
 E|------------------------------------------------------------------------6--|
 B|------2345------3456------2345------3456------4567------5678-------6789----|
F#|-3456------4567------3456------4567------5678------6789------78910---------|
C#|---------------------------------------------------------------------------|
    .... .... .... .... .... .... .... .... .... .... .... .... ....  ....

C#|------------------||
G#|------------------||
 E|------------------||
 B|--2-2--2--2-2--2--||
F#|--2-2--2--2-2--2--||
C#|--0-0--0--0-0--0--||
     . .  .  . .  .
                      X4                     end on:
C#|-----------------------------------------|-------||
G#|-----------------------------------------|-------||
 E|-----------------------------------------|-------||
 B|-----------11/8---9/6----------2-3-7---6-|----6--||
F#|--3-4-7-6--10/7-3-8/5--3-4-7-6-2-3-7-0-6-|--0-6--||
C#|--3-4-7-6--9-/6-3-7/4--3-4-7-6-0-1-5-0-4-|--0-4--||
     . . . .       .      . . . . . .   .      .
C#|---------------------------------------------------------------------||
G#|---------------------------------------------------------------------||
 E|----------------------------------------------------------------12*/-||
 B|-2-3-6--2-3------7*--6-6---3--9/6-------------------3-4/7/6/3/4------||X4
F#|-2-3-6--2-3--3/6-----5-5-0-2--8/5-------------------3-4/7/6/3/4------||
C#|-0-1-4--0-1----------4-4-0-1--7/4--6-4-3-1-2-3--4*--3-4/7/6/3/4------||
    . .    .            . . . .       . . . . . .      .

C#|------------||
G#|------------||
 E|------------||
 B|-2-3-6--2-3-||X3
F#|-2-3-6--2-3-||
C#|-0-1-4--0-1-||
    . .    .

Guitar Left:
C#|-----------------------------------------------------------------||
G#|----------------------------------------------7---10-7-----------||
E |--------------------5-7-8-7-5-----------5-7-8---8-----8-7-5------||
B |--3-0---0-3-6-4-6-7-----------7-6-4-6-7---------------------6-7--||
F#|------2-------------------------------------------------------7--||
C#|--------------------------------------------------------------5--||
     . . . . . . . . . . . . . . . . . . . . . .
Guitar Right:
C#|-------------------------------------------------||
G#|-------------------------------------------------||
E |-------------------------------------------------||
B |------------------------------0-4-0-7-4-------7--||
F#|----3-5-6-5-33-----------3-5-6---------6-5----7--||
C#|-22-----------5-4-2-2-4-5-----------------8-5-5--||
    .. . . . . ... . . . . .. . .. . . . .. .. .

Both Guitars:
C#|------------------||
G#|------------------||
E |------------------||
B |--7---------------||
F#|--6--5--4--4-4-4--||
C#|--5--7--6--6-6-6--||

Guitar middle:
C#|-----------------------------------------------------------||
G#|-------------------12-10-12b-10---------------11--13-------||
 E|--------9h10p9--8--------------11-7--10-----10--10--10/15/-||
 B|-7--7-10------10-----------------------12-13---------------||
F#|-----------------------------------------------------------||
C#|-----------------------------------------------------------||

Left and right guitars: X3     end on:
C#|---------------------------|-----------------------------------------||
G#|---------------------------|---------------------------------4-------||
E |---------------------------|---------------------------3-5-6---6-3/5-||
B |-7-777---------5-4---------|-7-777---------5-4-----4-3---------------||
F#|-7-777-6-666-7-----5-4-444-|-7-777-6-666-7-------5-------------------||
C#|-5-555-5-555-------7-6-666-|-5-555-5-555-------7---------------------||
      ...   ...           ...     ...   ...       . . . .

Guitar middle:
C#|-------------------------------------------------------||
G#|-------8-----------7---------------------------9----12-||
 E|---9----9------8----8----9-12-11--11------10-----10----||
 B|-7--10---10--7--10---10---------9---12--8---12---------||X3
F#|-------------------------------------------------------||
C#|-------------------------------------------------------||

C#|--------------------------------------------11-12-14-12-9/11-||
G#|-------8-----------7-------8-7/12-10-15-9-14-----------------||
 E|---9----9------8----8----9-----------------------------------||
 B|-7--10---10--7--10---10--------------------------------------||
F#|-------------------------------------------------------------||
C#|-------------------------------------------------------------||

Clean:
C#|-------------------------------------8---11--------------------------||
G#|--------12----10-13---10-13-----10-----10--10------------------------||
 E|--7/9-10----11------10------9--8---11---------8-----------4---7---7--||
 B|-----------------------------------------------10-7---5-4---7---8----||
F#|---------------------------------------------------9-7---------------||
C#|---------------------------------------------------------------------||

Guitar Left: (beginning almost inaudible) X2
C#|-----------------------------------------||
G#|-----------------------------------------||
 E|--5--5-7-9--7/5-5/7-5--5-9--7---------7--||
 B|--7--7-9-10-9/7-7/9-7--7-10-9---------8--||
F#|------------------------------9/7-9/7----||
C#|-----------------------------------------||

C#|------0-----0---------7---7----------0-----0-------------------||
G#|-----0-0-----0--7--6---5---5--------0-0-----0--------------0---||
 E|----5------5--5--5--5---0----0-----5------5--5--------0---0-0--||
 B|---7------7-------7--7------------7------7------5-4--0---0---0-||X2
F#|--0------0-----------------------6------6------7----2---1------||
C#|---------------------------------------------------------------||

Guitar Right: X4
C#|------0-----0---------7---7----------0-----0-------------------||
G#|-----0-0-----0--7--6---5---5--------0-0-----0--------------0---||
 E|----5------5--5--5--5---0----0-----5------5--5--------0---0-0--||
 B|---7------7-------7--7------------7------7------5-4--0---0---0-||
F#|--0------0-----------------------6------6------7----2---1------||
C#|---------------------------------------------------------------||

Both Guitars: 2:56  X2 (Then carry on throughout the clean solo)
C#|------0-----0---------0------0---------0-----0----------3-----2----||
G#|-----0-0-----0-------0-0------0-------1-1-----1--------3-3---3-3---||
 E|--------------0-----0------0---0-----0------0--0------0-----2---2--||
 B|----2------2-------2------2---------2------2---------0-----0-------||
F#|---2------2-------3------3---------0------0------------------------||
C#|--0------0-----------------------------------------3---------------||

Clean solo:
C#|--------15-13/14--------------------------------------12---15--15/17---||
G#|----------------15-------------15-----------------13----13---13-----13-||
 E|------16----------14-12--14/16---14-12-12-----12----14-----------------||
 B|-12h14-----------------14----------------12h14--14---------------------||
F#|-----------------------------------------------------------------------||
C#|-----------------------------------------------------------------------||

C#|-19-19/20/19-17-17/19-17-19-15----------15/14----------||
G#|------------------------------17-------------15-15-15--||
 E|-16-16/17/16-14-14/16-14--------16h17-19--------14h16--||
 B|-------------------------------------------------------||
F#|-------------------------------------------------------||
C#|-------------------------------------------------------||

C#|-------------------------------------------12------------------12-15-------|
G#|----------12h13p12-----------------12h13-15--15-13-12h13p12--13-----13-----|
 E|------12----------12--12/14-12---12------------------------14---------12---|
 B|-12h14--14----------14---------14------------------------------------------|
F#|---------------------------------------------------------------------------|
C#|---------------------------------------------------------------------------|

Distortion 3rd guitar:
C#|------------------14----------||
G#|---------15----15----17--/15--||
 E|--b11b11----14----------------||
 B|------------------------------||
F#|------------------------------||
C#|------------------------------||

Both guitars:
C#|-----------------------------------------------||
G#|-----------------------------------------------||
 E|-----7---------------------7-----------7-------||
 B|--5--7-------2-2222222222--5--5--4--2--5--5--4-||
F#|--5--5-------2-2222222222--3--5--5--2--3--5--5-||
C#|--3----15/---0-0000000000-----3--2--0-----3--2-||
                  ..........

Both guitars:  X2
C#|-------------------------------------------||
G#|-------------------------------------------||
 E|-----------------------7-77-7-77-7-77-7-77-||
 B|-2-22-2-22-2-22-2-22---5-55-5-55-5-55-5-55-||
F#|-2-22-2-22-2-22-2-22---3-33-3-33-3-33-3-33-||
C#|-0-00-0-00-0-00-0-00-----------------------||
      ..   ..   ..   ..     ..   ..   ..   ..
C#|-------------------------------------------||
G#|-------------------------------------------||
 E|-------------------------------------------||
 B|-5-55-5-55-5-55-5-55---4-44-4-44-4-44-4-44-||
F#|-5-55-5-55-5-55-5-55---5-55-5-55-5-55-5-55-||
C#|-3-33-3-33-3-33-3-33---2-22-2-22-2-22-2-22-||
      ..   ..   ..   ..     ..   ..   ..   ..

Guitar middle: (intro to solo)
C#|--------------------------------------------------------||
G#|-8--8--8--8--8--8--8--8--8--8--8--8--8--8--8--8--8--8---||
 E|--11-11-11-11-11-11-11-11-11-11-11-11-11-11-11-11-11-11-||
 B|--------------------------------------------------------||
F#|--------------------------------------------------------||
C#|--------------------------------------------------------||

C#|-----------------------------------------------------------------||
G#|-10--10--10--10--10--10-----12--12--12--12--12--12--12--12--12---||
 E|---12--12--12--12--12--12-----14--14--14--14--14--14--14--14--14-||
 B|-----------------------------------------------------------------||
F#|-----------------------------------------------------------------||
C#|-----------------------------------------------------------------||

C#|------------------------------------------------------------------------||
G#|-12--12--12--12--12--12--12--12--12-----13--13-----15----17--17----19---||
 E|---14--14--14--14--14--14--14--14--14-----16--16-----17----19--19----21-||
 B|------------------------------------------------------------------------||
F#|------------------------------------------------------------------------||
C#|------------------------------------------------------------------------||

Both Guitars: X7   On 8th time play
C#|-------------------|the open note
G#|-------------------|but then stop
 E|------7------------|cos only the
 B|--2---5---5---4----|keyboards go
F#|--2---3---5---5----|to the end
C#|--0-------3---2----|of the song

Guitar middle solo:X4
C#|-15-14------------------------------------------------------14h15----||
G#|-------15------------------------------------------------15-------15-||
 E|----------14/1616-19---------19--------------------14-16-------------||
 B|--------------------17-16-17----16h17-17--17-16----------------------||
F#|------------------------------------------------17-------------------||
C#|---------------------------------------------------------------------||

C#|--------------------------------14-17--||
G#|------------------------------15-------||
 E|----------------------------14---------||
 B|--19-17-16-17-16----------16-----------||
F#|-----------------17-10--17-------------||
C#|---------------------------------------||

Do this after the solo until end of song:
C#|-15-14--------------------------------------------------------------------|
G#|----15--------------------------------------------------------------------|
 E|-----14-1616-16--16--14-16/19-16/12-16--14-16/19-16-12--11-14-16/19-16----|
 B|------------------------------------------------------12------------------|
F#|--------------------------------------------------------------------------|
C#|--------------------------------------------------------------------------|
Tap to rate this tab
# A B C D E F G H I J K L M N O P Q R S T U V W X Y Z