Song name
# A B C D E F G H I J K L M N O P Q R S T U V W X Y Z

Mordingjarnir - Ekki I Dag tab

Here's a tab of a song by the Icelandic band Mordingjarnir.

"Ekki i dag" from the album Áfram Ísland

Myspace:
http://www.myspace.com/mordingjarnir

-----------------------------------------------------------------|
----------------------------9--7----------------------------9--7-|
-5-898989-5-898989-5-898989-9-77-5-898989-5-898989-5-898989-9-77-|
-5-898989-5-898989-5-898989-7-75-5-898989-5-898989-5-898989-7-75-|
-3-787878-3-787878-3-787878---5--3-787878-3-787878-3-787878---5--|

-----------------------------------------------------------------|
-----------------------------------------------------------------|
-777-----777-----555-----555-----777-----777-----555-----5~------|
-777-777-777-777-555-555-555-555-777-777-777-777-555-555-5~------|
-555-777-555-777-333-555-333-555-555-777-555-777-333-555-3~------|
-----555-----555-----333-----333-----555-----555-----333---------|

----12-----------------------------------------------------------|
-12----12-10-8---------------------------------------------------|
-----------------------------------------------------------------|
-----------------------------------------------------------------|
-----------------------------------------------------------------|
-----------------------------------------------------------------|

-----------------------------------------------------------------|
-----------------------------------------------------------------|
-----------------------------------------------------------------|
-5555-5555-7777-7777-10101010-10101010-10101010-10101010---------|
-5555-5555-7777-7777-10101010-10101010-10101010-10101010---------|
-3333-3333-5555-5555-8-8-8-8--8-8-8-8--8-8-8-8--8-8-8-8----------|

-----------------------------------------------------------------|
-----------------------------------------------------------------|
-----------------------------------------------------------------|
-5555-5555-7777-7777-10101010-10101010-10101010-10101010---------|
-5555-5555-7777-7777-10101010-10101010-10101010-10101010---------|
-3333-3333-5555-5555-8-8-8-8--8-8-8-8--8-8-8-8--8-8-8-8----------|

-----------------------------------------------------------------|
-----------------------------------------------------------------|
-----------------------------------------------------------------|
-5555-5555-7777-7777-10101010-10101010-10101010-10101010---------|
-5555-5555-7777-7777-10101010-10101010-10101010-10101010---------|
-3333-3333-5555-5555-8-8-8-8--8-8-8-8--8-8-8-8--8-8-8-8----------|

---------------------------12------------------------------------|
------------------------------12---------------------------------|
-----------------------------------------------------------------|
-5555-5555-7777-7777-10~-----------------------------------------|
-5555-5555-7777-7777-10~-----------------------------------------|
-3333-3333-5555-5555-8-~-----------------------------------------|

-----------------------------------------------------------------|
-----------------------------------------------------------------|
----------------------------9-9~---------------------------------|
-5-898989-5-898989-5-898989-9-9~---------------------------------|
-5-898989-5-898989-5-898989-7-7~---------------------------------|
-3-787878-3-787878-3-787878--------------------------------------|
Tap to rate this tab
 
# A B C D E F G H I J K L M N O P Q R S T U V W X Y Z