Song name
# A B C D E F G H I J K L M N O P Q R S T U V W X Y Z

More Than A Thousand - No Bad Blood tab

======================================================
                 More Than A Thousand
                    "No Bad Blood"
Track #2 on the "Vol.4 Make Friends And Enemies" album
======================================================

Tabbed by Pedro Macedo, A.K.A. Linkerman
Comments and ratings are very much appreciated!
E-mails to "o_samaritano-hellboy(at)sapo.pt"


Drop-D tuning


Intro
e|--------------------------------------|-------------------------------------|
B|--------------------------------------|-------------------------------------|
G|--------------------------------------|--------------------------------5555-|
D|--------------------------------------|------------------------------555555-|
A|-55555555-11111111---------------3333-|-55555555-11111111-00000000-33333333-|
D|-------------------33333333-2222------|-------------------------------------|
   ........ ........ ........ .... ....   ........ ........ ........ ...   P.M.


Verse                                             x3,5
e||-------------------------------------------------||-----------------------|
B||o-----------------------------------------------o||-----------------------|
G||---------------5555-8888-------------------------||-----------------------|
D||--000000000000-xxxx-xxxx-000000000000------------||-10101010-131313131313-|
A||o-000000000000-3333-6666-000000000000-5555-8888-o||-10101010-131313131313-|
D||--000000000000-----------000000000000-5555-8888--||-10101010-131313131313-|


Chorus
e|------------------------------------------|
B|------------------------------------------|
G|------------------------------------------|
D|-00000000-88888888-33333333-2222-10101010-|
A|-00000000-88888888-33333333-2222-10101010-|
D|-00000000-88888888-33333333-2222-10101010-|

e|---------------------------------------------|
B|---------------------------------------------|
G|---------------------------------------------|
D|-00000000-88888888-77777777-1010101010101010-|
A|-00000000-88888888-77777777-1010101010101010-|
D|-00000000-88888888-77777777-1010101010101010-|


Play Verse (first 2x with the rhythm from 1st part of Bridge)
Play Chorus


Post-Chorus
e|----------------------------------------------------|
B|----------------------------------------------------|
G|----------------------------------------------------|
D|-88888888-77777777-10101010101010101010101010101010-|
A|-88888888-77777777-10101010101010101010101010101010-|
D|-88888888-77777777-10101010101010101010101010101010-|


Bridge
e|---------------------------------------------------|
B|---------------------------------------------------|
G|----------------5555-8888--------------------------|
D|-0000-0000-0000-xxxx-xxxx-0000-0000-0000-----------|
A|-0000-0000-0000-3333-6666-0000-0000-0000-5555-8888-|
D|-0000-0000-0000-----------0000-0000-0000-5555-8888-|
   ...  ...  ...            ...  ...  ...            P.M.

e|------------------------------------------------------|
B|------------------------------------------------------|
G|----------------5555-8888--------------------------7\-|
D|-0000-0000-0000-xxxx-xxxx-0000-0000-0000-----------x--|
A|-0000-0000-0000-3333-6666-0000-0000-0000-3333-6666-5\-|
D|-0000-0000-0000-----------0000-0000-0000-3333-6666----|
   ...  ...  ...            ...  ...  ...               P.M.

                                  x3
e||-------------------------------||-----------------------------|
B||o-----------------------------o||-----------------------------|
G||-----------------5555-8888-7\--||--------------------------7\-|
D||--000000--000000-xxxx-xxxx-x---||-000000--000000-----------x--|
A||o-000000--000000-3333-6666-5\-o||-000000--000000-3333-6666-5\-|
D||--000000--000000---------------||-000000--000000-3333-6666----|
     ......  ......                  ......  ......              P.M.

e||-------------------------------|-------------------------------||-----|
B||o------------------------------|------------------------------o||-----|
G||------------------5555-8888-7\-|---------------------------7\--||-----|
D||--000000--000-000-xxxx-xxxx-x--|-000000--000-000-----------x---||-0~~-|
A||o-000000--000-000-3333-6666-5\-|-000000--000-000-3333-6666-5\-o||-0~~-|
D||--000000--000-000--------------|-000000--000-000-3333-6666-----||-0~~-|
     .....   ..  ..                 .....   ..  ..                       P.M.


Play Chorus x2
Play Post-Chorus x2
Play 1st part of Verse x2, end with D power chord
Tap to rate this tab
# A B C D E F G H I J K L M N O P Q R S T U V W X Y Z