Song name
# A B C D E F G H I J K L M N O P Q R S T U V W X Y Z

More Than A Thousand - This City Is A Graveyard tab

More Than A Thousand - This City Is A Graveyard

Tab by Punkwolf

Intro (Guitar 1)
e|--9(14x)-10(14x)------------------------------------------------------|
B|-----------------999999-101010101010101099-999999-101010101010101099--|
G|----------------------------------------------------------------------|
D|----------------------------------------------------------------------|
A|----------------------------------------------------------------------|
D|----------------------------------------------------------------------|

Intro (Guitar 2)
e|----------------------------------------------------------------------|
B|----------------------------------------------------------------------|
G|----------------------------------------------------------------------|
D|--4-4-4-4-4-4-4-4--0-0-0-0-0-0-0-0--7-7-7-7-7-7-7-7--2-2-2-2-2-2-2-2--|
A|--4-4-4-4-4-4-4-4--0-0-0-0-0-0-0-0--7-7-7-7-7-7-7-7--2-2-2-2-2-2-2-2--|
D|--4-4-4-4-4-4-4-4--0-0-0-0-0-0-0-0--7-7-7-7-7-7-7-7--2-2-2-2-2-2-2-2--|

Verse (Guitar 1)
e|----------------------------------------------------------------------|
B|----------------------------------------------------------------------|
G|----------------------------------------------------------------------|
D|--4~---------------0~---------------7~--------------2~----------------|
A|--4~---------------0~---------------7~--------------2~----------------|
D|--4~---------------0~---------------7~--------------2~----------------|

Verse (Guitar 2)
e|----------------------------------------------------------------------|
B|----------------------------------------------------------------------|
G|----------------------------------------------------------------------|
D|--4-4-4-4-4-4-4-4--0-0-0-0-0-0-0-0--7-7-7-7-7-7-7-7--2-2-2-2-2-2-2-2--|
A|--4-4-4-4-4-4-4-4--0-0-0-0-0-0-0-0--7-7-7-7-7-7-7-7--2-2-2-2-2-2-2-2--|
D|--4-4-4-4-4-4-4-4--0-0-0-0-0-0-0-0--7-7-7-7-7-7-7-7--2-2-2-2-2-2-2-2--|

Pre-Chorus (Guitar 1)
e|-------------------------------------------------------------------------|
B|-------------------------------------------------------------------------|
G|--7-7-7-7-7-7-7-7--9-9-9-9-9-9-9-9--11-11-11-11-11-11-11-11-11-11-11-11--|
D|-------------------------------------------------------------------------|
A|--5-5-5-5-5-5-5-5--7-7-7-7-7-7-7-7---9--9--9--9--9--9--9--9--9--9--9--9--|
D|-------------------------------------------------------------------------|

e|----------------------------------------------------------------------|
B|----------------------------------------------------------------------|
G|--7-7-7-7-7-7-7-7--9-9-9-9-9-9-9-9--5-5-5-5-5-5-5-5--9-9-9-9-9-9-9-9--|
D|----------------------------------------------------------------------|
A|--5-5-5-5-5-5-5-5--7-7-7-7-7-7-7-7--5-5-5-5-5-5-5-5--7-7-7-7-7-7-7-7--|
D|----------------------------------------------------------------------|

Pre-Chorus (Guitar 2)
e|-------------------------------------------------------------------------|
B|-------------------------------------------------------------------------|
G|-------------------------------------------------------------------------|
D|--0-0-0-0-0-0-0-0--2-2-2-2-2-2-2-2--4-4-4-4-4-4-4-4-4-4-4-4-4-4-4-4-4-4--|
A|--0-0-0-0-0-0-0-0--2-2-2-2-2-2-2-2--4-4-4-4-4-4-4-4-4-4-4-4-4-4-4-4-4-4--|
D|--0-0-0-0-0-0-0-0--2-2-2-2-2-2-2-2--4-4-4-4-4-4-4-4-4-4-4-4-4-4-4-4-4-4--|

e|----------------------------------------------------------------------|
B|----------------------------------------------------------------------|
G|----------------------------------------------------------------------|
D|--0-0-0-0-0-0-0-0--2-2-2-2-2-2-2-2--0-0-0-0-0-0-0-0--2-2-2-2-2-2-2-2--|
A|--0-0-0-0-0-0-0-0--2-2-2-2-2-2-2-2--0-0-0-0-0-0-0-0--2-2-2-2-2-2-2-2--|
D|--0-0-0-0-0-0-0-0--2-2-2-2-2-2-2-2--0-0-0-0-0-0-0-0--2-2-2-2-2-2-2-2--|

Chorus (Guitar 1 and 2)
e|----------------------------------------|
B|----------------------------------------|
G|----------------------------------------|
D|--4-4-4-4-4--0-0-0-0--7-7-7-7--2-2-2-2--|
A|--4-4-4-4-4--0-0-0-0--7-7-7-7--2-2-2-2--|
D|--4-4-4-4-4--0-0-0-0--7-7-7-7--2-2-2-2--|

Bridge (Guitar 2) Palm mute
e|----------------------------------------------------------------------|
B|----------------------------------------------------------------------|
G|----------------------------------------------------------------------|
D|----------------------------------------------------------------------|
A|----------------------------------------------------------------------|
D|--4-4-4-4-4-4-4-4--0-0-0-0-0-0-0-0--7-7-7-7-7-7-7-7--2-2-2-2-2-2-2-2--|

3rd Pre-Chorus (Guitar 1 and 2)
e|-------------------------------------------------------------------------|
B|-------------------------------------------------------------------------|
G|-------------------------------------------------------------------------|
D|--0-0-0-0-0-0-0-0--2-2-2-2-2-2-2-2--4-4-4-4-4-4-4-4-4-4-4-4-4-4-4-4-4-4--|
A|--0-0-0-0-0-0-0-0--2-2-2-2-2-2-2-2--4-4-4-4-4-4-4-4-4-4-4-4-4-4-4-4-4-4--|
D|--0-0-0-0-0-0-0-0--2-2-2-2-2-2-2-2--4-4-4-4-4-4-4-4-4-4-4-4-4-4-4-4-4-4--|

e|----------------------------------------------------------------------|
B|----------------------------------------------------------------------|
G|----------------------------------------------------------------------|
D|--0-0-0-0-0-0-0-0--2-2-2-2-2-2-2-2--0-0-0-0-0-0-0-0--2-2-2-2-2-2-2-2--|
A|--0-0-0-0-0-0-0-0--2-2-2-2-2-2-2-2--0-0-0-0-0-0-0-0--2-2-2-2-2-2-2-2--|
D|--0-0-0-0-0-0-0-0--2-2-2-2-2-2-2-2--0-0-0-0-0-0-0-0--2-2-2-2-2-2-2-2--|

Ending
e|----------------------------------------------------------------------|
B|----------------------------------------------------------------------|
G|----------------------------------------------------------------------|
D|--0~---------------2~---------------0~---------------2~---------------|
A|--0~---------------2~---------------0~---------------2~---------------|
D|--0~---------------2~---------------0~---------------2~---------------|

Song Structure:
Intro 2x
Verse 2x
Pre-Chorus
Chorus 4x
Intro 2x
Verse 2x
Pre-Chorus
Chorus 4x
Ending
Bridge
3rd Pre-Chorus
Chorus 4x
Ending

http://www.morethanathousand.com
http://www.myspace.com/morethanathousand
Tap to rate this tab
 
# A B C D E F G H I J K L M N O P Q R S T U V W X Y Z