Song name
# A B C D E F G H I J K L M N O P Q R S T U V W X Y Z

More Than Life - Brave Enough To Fail tab

Song: Brave Enough To Fail
Band: More Than Life
Album: Brave Enough To Fail EP

Half Step down tuning.
That is: Eb Ab Db Gb Bb eb

Intro
-------------|
-------------|
-------------|
-------------|  x2
-------------|
--0----------|


-----------------------|
-----------------------|
-----------------------|
--2---4-2-0-2----------|  x6
----------------3--5---|
-----------------------|


----------------------|
----------------------|
----------------------|
--2-------------------| (hold)
----------------------|
--0-------------------|


-----------------------------------------|
--5-5-5-5--5/7-7-7--7/8-8-8--8/10-10-10--|
-----------------------------------------|
-----------------------------------------|   x6
-----------------------------------------|
-----------------------------------------|


-----------------------------------------|
--5-5-5-5--5/7-7-7--7/8-8-8--8/10-10-10--|
-----------------------------------------|
-----------------------------------------| x6
-----------------------------------------|
-----------------------------------------|

other guitar plays this on every 2nd time after the first 2.
-------------------------------------------------------|
--8-8-8-8--8/10-10-10--10/12-12-12-12--12/13-13-13-13--|
-------------------------------------------------------|
-------------------------------------------------------|
-------------------------------------------------------|
-------------------------------------------------------|


-----------------------|
-----------------------|
-----------------------|
--5----2---------------|  x4
--3----0----2----------|
------------0----------|

And I can't remember the other guitar for the outro
but it's similar to the riff above that is:
-----------------------------------------|
--5-5-5-5--5/7-7-7--7/8-8-8--8/10-10-10--|
-----------------------------------------|
-----------------------------------------|
-----------------------------------------|
-----------------------------------------|
so figure it out yourself.

I'd appreciate comments and ratings.
No one ever comments or rates my other tabs -Check them out!


http://www.myspace.com/morethanlifehardcore
http://www.myspace.com/morethanlifehardcore
Tap to rate this tab
# A B C D E F G H I J K L M N O P Q R S T U V W X Y Z