Song name
# A B C D E F G H I J K L M N O P Q R S T U V W X Y Z

More Than Life - Fear tab

More Than Life use half step down tuning.
But, if you're in standard, just take every not down a fret.

Band: More Than Life
Song: Fear (intro)
Album: Brave Enough to Fail EP
Tabber:  Jimi - ThisIsWhereMyHe

Tuning: (Low-high)  Eb, Ab, Db, Gb, Bb, eb

-----------------|----------------------|
--3-2--------3---|-3-2h3p2---------3----|
------2--2h4---4-|---------4-2-2h4---4--|
-----------------|----------------------|
-----------------|----------------------|
-----------------|----------------------|


--3\2-2-2h3p2------|-3--2---------------|
--------------3h5--|------5--3---3-3----|
-------------------|-----------00-0-00--|
-------------------|--------------------|
-------------------|--------------------|
-------------------|--------------------|


----------------------|--------3---3----|
--3-2h3p2---------3---|-2--5-2---2---2--|
----------4-2-2h4---4-|-----------------|
----------------------|-----------------|
----------------------|-----------------|
----------------------|-----------------|

----------------------|---------------------|
--3-2h3p2---------3---|-3-2h3p2---------3---|
----------4-2-2h4---4-|---------4-2-2h4---4-|
----------------------|---------------------|
----------------------|---------------------|
----------------------|---------------------|


--3\2-2-2h3p2------|-3--2---------------|
--------------3h5--|------5--3---3-3----|
-------------------|-----------00-0-00--|
-------------------|--------------------|
-------------------|--------------------|
-------------------|--------------------|


------------------------|
--3-2h3p2------------2--|
----------4-2-2h4-------|
------------------------|
------------------------|
------------------------|
Tap to rate this tab
 
# A B C D E F G H I J K L M N O P Q R S T U V W X Y Z