Song name
# A B C D E F G H I J K L M N O P Q R S T U V W X Y Z

More Than Life - Daisy Hill tab

Daisy Hill
More Than Life
Love Let Me Go

Half Step Down Tuning

Intro:
----------------------------------------------------------|
----------------------------------------------------------|
--4--2----2-4-5--4--2--2-4-5-2--4-5-2--4-5-2--4-5-7-5-4-2-|
--------5-------------------------------------------------|
----------------------------------------------------------|
----------------------------------------------------------|

--------------------------------------------|
--------------------------------------------|
--4-5-2--4-5-2--4-5-7-5-4-2---2---2---5-----|
--------------------------------------------|
--------------------------------------------|
--------------------------------------------|

Drums: feedback.

Why do I lie to myself and still pretend...
-----------------------------------------|
-----------------------------------------|
--2-5-5-5-|-5-4-4-4-|-4-2-2-2-|-2-2-2-2--|
----------|------------------------------|
--0-3-3-3-|-3-2-2-2-|-2-0-0-0-|-0-0-0-0--|
----------|------------------------------|


At the end of the street I swear I saw myself...
----------------------------------|
--0-5-0-3----------0-5-0-3--------|
----------------------------------|
----------------------------------|
----------------------------------|
----------------------------------|


In my dreams why is your house number...
---------------------------------------------|
--0-5-00-3-00-6-00-5-00-5-00-3-00-6-00-5-00--|
---------------------------------------------|
---------------------------------------------|
---------------------------------------------|
---------------------------------------------|


Since the day I was born...
---------------------------------------|
--5-3h5p3---5-0-8-0-5-3h5p3---5-0-1-0--|
----------5-----------------5----------|
---------------------------------------|
---------------------------------------|
---------------------------------------|


Home...
-----------------------|
-----------------------|
--2--------------------|
--2--(x32)--3----------|
--0---------3--(x32)---|
------------1----------|


And when my time comes...
---------------------------------------------|
---------------------------------------------|
--7----5----4----5-4-2--5---------7----------|
---------------------------------------------|
---------------------------------------------|
---------------------------------------------|

---------------------------------------------|
---------------------------------------------|
------5-4-----5-4-5-4---------2-0------2-0---|
----------------------5-3--------------------|
--3-2-----3-2---------------0--------0-------|
--------------------------1--------1---------|

No longer my home...
-----------------------------------|
-----------------------------------|
-----------------------------------|
--7--7-77-7-7-7-77-7-7-7-77-7-7-7--|
--7--7-77-7-7-7-77-7-7-7-77-7-7-7--|
--5--5-55-5-5-5-55-5-5-5-55-5-5-5--|
       .. . .   .. . .   .. . .

-----------------------------------|
-----------------------------------|
-----------------------------------|
--3--3-33-3-3-3-33-3-3-3-33-3-3-3--|
--3--3-33-3-3-3-33-3-3-3-33-3-3-3--|
--1--1-11-1-1-1-11-1-1-1-11-1-1-1--|
       .. . .   .. . .   .. . .


No longer my home...
---------------------------------|
---------------------------------|
--10----9----10-9-10-12-10-9-10--|
---------------------------------|
---------------------------------|
---------------------------------|

------|
------|
--12--|
------|
------|
------|


Why do I lie to myself...
-----------------------------------------|
-----------------------------------------|
--2-5-5-5-|-5-4-4-4-|-4-2-2-2-|-2-2-2-2--|
----------|------------------------------|
--0-3-3-3-|-3-2-2-2-|-2-0-0-0-|-0-0-0-0--|
----------|------------------------------|


Daisy Hill so easily...
---------------------------------------------|
--0-5-00-3-00-6-00-5-00-5-00-3-00-6-00-5-00--|
---------------------------------------------|
---------------------------------------------|
---------------------------------------------|
---------------------------------------------|
Tap to rate this tab
 
# A B C D E F G H I J K L M N O P Q R S T U V W X Y Z