Song name
# A B C D E F G H I J K L M N O P Q R S T U V W X Y Z

More Than Life - Scarlet Skyline tab

-------------------------------------------------------------------------------
			     SCARLET SKYLINE - More Than Life
-------------------------------------------------------------------------------
Tabbed by: DantheJew12
Email:danfirth677@hotmail.com

Tuning: Eb, Ab, Db, Gb, Bb, Eb,

|---------------------------------------------------------------|
|---------------------------------------------------------------|
|-------0-------------0-------------0------------0---------0----|     
|-----4---4---------4---4---------4---4--------4---4-----4---4--|     X 2
|---2-------2-----2-------2-----2-------2-----------------------|
|-0-------------0-------------0-------------3/5--------3--------|


|--------------0------5----------------------------------------|
|----------------3------3--------------------------------------|
|-------0----------0------0----------0-----------0--------0----|
|-----4---4------------------------4---4-------4---4----4---4--|  
|---2-------2--------------------2-------2---------------------|
|-0-------------------------3--0-----------3/5--------3--------|

|--------------0-----5---------------------------------------------|
|----------------3-----3-------------------------------------------|
|-------0----------0-----0-----------0----------0--------0---------|
|-----4---4------------------------4---4------4---4----4---4----2~-|
|---2-------2--------------------2-------2--3--------5----------2~-|
|-0-------------------------3--0--------------------------------0~-|

I'll tab the rest when I can be bothered, Cheers.


************************************

| /   slide up
| \   slide down
| h   hammer-on
| p   pull-off
| ~   vibrato
| +   harmonic
| x   Mute note
| b   Bend
| pb  Pre-bend
| br  Bend release
| pbr Pre-bend release
| brb Bend release bend

************************************
Tap to rate this tab
 
# A B C D E F G H I J K L M N O P Q R S T U V W X Y Z