Morgan Grace - I Will Eat You Alive tab

http://morgangracemusic.com/  <-- official website of Morgan Grace

I tabbed the version from some show cause i couldn't find the original... here's the link:
http://www.youtube.com/watch?v=aMo3a7XaWaI&feature=player_embedded#!


e ----------------------2-0---2-1-0----------------2-2-2-|
B ----------------0-2-3-----2-------4--0--3--0--3--3-3-3-|
G -----------2-3--------------------------------2--2-2-2-|
D -0--2-3-4-------------------0-----------------0--0-0-0-|
A ----------------------0-----------2--------------------|
E --------2-------3-----------------------3--------------|

Chorus

e -2---2-2--2---2-2--2---2-2--3---3-3-2---2-2--2---2-2-3---3-3-2---2-2-||
B -3---3-3--4---4-4--2---2-2--3---3-3-3---3-3--2---2-2-3---3-3-3---3-3-||
G -2---2-2--4---4-4--3---3-3--4---4-4-2---2-2--3---3-3-4---4-4-2---2-2-||
D -0---0-0--4---4-4--4---4-4--5---5-5-0---0-0--4---4-4-5---5-5-0---0-0-||
A ----------2---2-2--4---4-4--5---5-5----------4---4-4-5---5-5---------||
E -------------------2---2-2--3---3-3----------2---2-2-3---3-3---------||

Verse

e -0--0-0-0---0-0-2--2-2--2--2-2-3--3-3-5--5-5-2--2-2-3--3-3-|
B -0--0-0-2---2-2-2--2-2--3--3-3-3--3-3-5--5-5-2--2-2-3--3-3-|
G -0--0-0-2---2-2-3--3-3--4--4-4-4--4-4-6--6-6-3--3-3-4--4-4-|
D -2--2-2-2---2-2-4--4-4--4--4-4-5--5-5-7--7-7-4--4-4-5--5-5-|
A -2--2-2-0---0-0-4--4-4--2--2-2-5--5-5-7--7-7-4--4-4-5--5-5-|
E -0--0-0---------2--2-2---------3--3-3-5--5-5-2--2-2-3--3-3-|

e -0--0-0-2--2-2-3--3-3-5--5-5-|
B -0--0-0-2--2-2-3--3-3-5--5-5-|
G -0--0-0-3--3-3-4--4-4-6--6-6-|
D -2--2-2-4--4-4-5--5-5-7--7-7-|
A -2--2-2-4--4-4-5--5-5-7--7-7-|
E -0--0-0-2--2-2-3--3-3-5--5-5-|

chorus

Verse 2
this verse is simply extended

e -0--0-0-0---0-0-2--2-2--2--2-2-3--3-3-5--5-5-2--2-2-3--3-3-|
B -0--0-0-2---2-2-2--2-2--3--3-3-3--3-3-5--5-5-2--2-2-3--3-3-|
G -0--0-0-2---2-2-3--3-3--4--4-4-4--4-4-6--6-6-3--3-3-4--4-4-|
D -2--2-2-2---2-2-4--4-4--4--4-4-5--5-5-7--7-7-4--4-4-5--5-5-|
A -2--2-2-0---0-0-4--4-4--2--2-2-5--5-5-7--7-7-4--4-4-5--5-5-|
E -0--0-0---------2--2-2---------3--3-3-5--5-5-2--2-2-3--3-3-|

e -0--0-0-0---0-0-2--2-2--2--2-2-3--3-3-5--5-5-2--2-2-3--3-3-|
B -0--0-0-2---2-2-2--2-2--3--3-3-3--3-3-5--5-5-2--2-2-3--3-3-|
G -0--0-0-2---2-2-3--3-3--4--4-4-4--4-4-6--6-6-3--3-3-4--4-4-|
D -2--2-2-2---2-2-4--4-4--4--4-4-5--5-5-7--7-7-4--4-4-5--5-5-|
A -2--2-2-0---0-0-4--4-4--2--2-2-5--5-5-7--7-7-4--4-4-5--5-5-|
E -0--0-0---------2--2-2---------3--3-3-5--5-5-2--2-2-3--3-3-|

e -0--0-0-2--2-2-3--3-3-5--5-5-|
B -0--0-0-2--2-2-3--3-3-5--5-5-|
G -0--0-0-3--3-3-4--4-4-6--6-6-|
D -2--2-2-4--4-4-5--5-5-7--7-7-|
A -2--2-2-4--4-4-5--5-5-7--7-7-|
E -0--0-0-2--2-2-3--3-3-5--5-5-|

Chorus

this verse is simply extended

extended (2nd) verse again

Chorus

outro (slightly different than intro)

e ----------------------2-0---2-1-0------------2-|
B ----------------0-2-3-----3-------4-3-0--2---3-|
G -----------2-3-------------------------------2-|
D -0--2-3-4-------------------0----------------0-|
A ----------------------0-----------2------------|
E --------2-------3------------------------3-----|

Ta da
Tap to rate this tab
 
# A B C D E F G H I J K L M N O P Q R S T U V W X Y Z