Song name
# A B C D E F G H I J K L M N O P Q R S T U V W X Y Z

Morgen La Civita - Im Okay tab

-------------------------------------------------------------------------------
                         I'm Okay - Morgen La Civita (album From the Basement)
-------------------------------------------------------------------------------
Tabbed by: MYGeR
Email: miger94@hotmail.fr

Morgen's website : http://www.reverbnation.com/morgenlacivita

You just have to follow the same pattern throughout the whole song.
(by the way, first tab for me)

Tuning: EADGBe  Capo 2

e|--------------------------------------------------------------------------|
B|-----------0-----------0-----------0------------0-------0-----------0-----|
G|--------0-----------0-----------5------------5-------------2-----------2--|
D|-----4-----------4-----------4------------4----------4-----------4--------|
A|--7-----------7-----------7------------7----------5-----------5-----------|
E|--------------------------------------------------------------------------|

e|--------------------------------------------------------------------------|
B|--------0-----------0-----------------------------------------------------|
G|-----------2-----------2--------------------------------------------------|
D|-----4-----------4--------------------------------------------------------|
A|--4-----------4-----------------------------------------------------------|
E|--------------------------------------------------------------------------|



************************************

| /   slide up
| \   slide down
| h   hammer-on
| p   pull-off
| ~   vibrato
| +   harmonic
| x   Mute note
| b   Bend
| pb  Pre-bend
| br  Bend release
| pbr Pre-bend release
| brb Bend release bend

************************************
Tap to rate this tab
 
# A B C D E F G H I J K L M N O P Q R S T U V W X Y Z