Mori Naoya - Yuuzora No Kami Hikouki tab

Title:		Yuuzora No Kamihikoki
Artist:		Mori Naoya [JPN]
Album:		Hajime No Ippo [Knockout  1st Season]
Tabbed by:	Dennis Y. Musa  STI College Marikina
		dennisyasismusa@gmail.com / denz4short@gmail.com / 0923 867 3483


Intro:


F  Fm (stroke down)


Verse:
         C		    G			Am			Em

e|------------------|-----------------------|-----------------------|---------------------------|
B|---1-----1-----1--|--3-----------3--1--0--|--1-----------1-----1--|--3----------3--1--0-------|
G|------0-----0-----|-----------------------|-----------2-----2-----|---------------------------|
D|------------------|-----------0-----------|--------2--------------|-----------2---------------|
A|---3--------------|--------2--------------|-----0-----------------|--------2------------------|
E|------------------|-----3-----------------|-----------------------|-----0---------------------|
     Ya      sa shi   I               ro shi  ta 	    so ra     o         ut su shi


	           F			               Em		           F	         G
e|-----------------------|--------------------|--------------------|--------0-------------------|
B|--1--1-----1-----1-----|--------------3-----|--1-----1-----1-----|--3--------3----------------|
G|--------2-----2-----2--|-----------0-----0--|-----2-----2-----0--|-----0--------0-------------|
D|-----3-----------------|--------2-----------|--3-----------------|----------------------------|
A|-----------------------|-----2--------------|--------------------|----------------------------|
E|-----------------------|--0-----------------|--------------------|--3-------------------------|
   Te 	     ko u 	so	bi rig a	 ya  ke    ni          ki  ra  ida





Refrain:

	       Em			Am		      F				G
e|-----------0h1--0--|-----------------|----------------|---------------------------------------|
B|--3--3--3----------|--1-----------0--|--1-----1-----1-|--3-----------3------------------------|
G|-------------------|-----------2-----|-----2-----2----|-----------------0---------------------|
D|-------------------|--------2--------|--3-------------|-----------0--------0------------------|
A|--2----------------|-----0-----------|----------------|--------2------------------------------|
E|-------------------|-----------------|----------------|-----3---------------------------------|
   Jou to shita koba   de    mu wa u     ni na ru    ka   ra


	Em		    Am		              F			Fm			G
e|--------1--0--|-----------------|-----------------|-----------------|-------------------------|
B|--3--3--------|--1-----------0--|--1-----1-----1--|--1-----1-----1--|--3--3--3--1--3--------3-|
G|--------------|-----------2-----|-----2-----2-----|-----1-----1-----|------------------------0|
D|--------------|--------2--------|--3--------------|-----------------|---------------------0---|
A|--2-----------|-----0-----------|-----------------|-----------------|-------------------2-----|
E|--------------|-----------------|-----------------|--1--------------|--3--------------3-------|
   Daijo bud a    tte    ka I ta    no     to no pe    e    ji wo  ya   bu tets ku uta






Chorus:

	          C			  G			Am			Em
e|-----0--0-0-0---0---|--------0-------|---------------------|-------------------------|
B|--------------3---0-|--3--------3----|--1-----1h3--1--0----|--0-----0h1--0-----------|
G|--------------------|-----0--------0-|-----2-------------2-|-----0----------2--0-----|
D|--------------------|----------------|---------------------|-------------------------|
A|--0--3--------------|----------------|--0------------------|--2----------------------|
E|--------------------|--3-------------|---------------------|-------------------------|
      Ka mi hi koukiga  do ne yuk u yo   ashi tani do  u ka    na mira u yo ni


     F	    G	  E	Am	     F			G

e|-------|-------|-----0-|-------|-------------------|--------0-------------------------|
B|-----1-|-----3-|-------|--1----|--1----1---1---1-3-|--3--3-----3----------------------|
G|--2----|--0----|--1----|-----2-|-----2---2---2-----|----------------------------------|
D|--3----|--0----|--2----|-------|--3----------------|----------------------------------|
A|-------|-------|-------|--0----|-------------------|----------------------------------|
E|-------|-------|-------|-------|-------------------|--3-------------------------------|
  Zuu to   zuu to  zuu to zuu to   yu   hi roroi kake  te I ru yo


	          C			  G			Am			Em
e|-----0--0-0-0---0---|--------0-------|---------------------|-------------------------|
B|--------------3---0-|--3--------3----|--1-----1h3--1--0----|--0-----0h1--0-----------|
G|--------------------|-----0--------0-|-----2-------------2-|-----0----------2--0-----|
D|--------------------|----------------|---------------------|-------------------------|
A|--0--3--------------|----------------|--0------------------|--2----------------------|
E|--------------------|--3-------------|---------------------|-------------------------|
      Ka mihikoukiga     ochinai  youri  bokuwa so ra ni ne    ga I  wo   ta ke ru


     F	    G	  E	Am	 F	   G	 ( C  F  Fm = stroke down )

e|-------|-------|-----0-|-------|-----------|----------|---|--s--|--s--|--s--|--------|
B|-----1-|-----3-|-------|--1----|--1----1---|--3--1--0-|-1-|--t--|--t--|--t--|--------|
G|--2----|--0----|--1----|-----2-|-----2---2-|----------|---|--r--|--r--|--r--|--------|
D|--3----|--0----|--2----|-------|--3--------|----------|---|--o--|--o--|--o--|--------|
A|-------|-------|-------|--0----|-----------|----------|---|--k--|--k--|--k--|--------|
E|-------|-------|-------|-------|-----------|--3-------|---|--e--|--e--|--e--|--------|
  Zuu to  zuu to  zuu to  zuu to   yu mega I   da I  ka   ra





LYRICS:

I
Yasashii roshita sora o utsushite
kousowo biriga yakeni kiraida
yukikau hitotachi sorezore no mune
no nagade keshikira kawate miyeru

II
kanashii roshita dare ka no tameni
imano jibun ni nani ga dekiru no ba
komenai tori tachi souna ni sora ga
kagaito wa omawanai omoi takuraii

Refrain 1
jouto shita kobade muwauni narukara
daijobu datte kaitanoto no page wo
yabute tetsukuta...

Chorus 1
kamihikouki ga doneyukuyo aishitani doukana
mirauyo ni zuuto zuuto zuuto zuuto
yuhiroroi kakete iruyo...

Chorus 2
kamihikouki ga ochinai youri
boku wa sora ni negai wo takeru
zuuto zuuto zuuto zuuto
yume gami daikara

III
Yasashii roshita jikan no nakade
jibun ga todemo jiisa kumieba
kowaate shimau kyou wo moote
nani ka dekiru koto wo sagasu keredo

Refrain 2
nandaka jouto gaangesu sugitana
daijobu datte omoere basore gadai
ippon ni naru

Chorus 1
kamihikouki ga doneyukuyo aishitani doukana
mirauyo ni zuuto zuuto zuuto zuuto
yuhiroroi kakete iruyo...

Chorus 2
kamihikouki ga ochinai youri
boku wa sora ni negai wo takeru
zuuto zuuto zuuto zuuto
yume gami daikara

Chorus 3
kamihikouki ga doneyukuyo nandomo kaze mi butsukari nagara
zuuto zuuto zuuto zuuto
dokumademo gomademo nagaku

Chorus 4
kamihikouki ga doneyukuyo yume ga yume ne wo waranai
yorou ni zuuto zuuto zuuto zuuto
shinji suzuketeru...

Coda
nagara zuuto zuuto zuuto zuuto
dounde yukeruyo...




ENJOY !!! Dennis_Damenis 2011 ☺
Tap to rate this tab
 
# A B C D E F G H I J K L M N O P Q R S T U V W X Y Z