Song name
# A B C D E F G H I J K L M N O P Q R S T U V W X Y Z

Morissette Alanis - Not The Doctor tab

Tuning: DADGBE, Capo 2 
All Chords and Tabs Relative To Capo


Intro + Verse:

Dadd4
e----------------------|
A-------------3---3----|
G------0-0----0---0----|
D----4-4-4-4----4---4--|
A----------0----0------|
E--0-------------------|

e-------------------3--|
A-------------3-----2--|
G------0-0----0-----0--|
D----4-4-4-4----4------|
A----------0----0------|
E--0-------------------|  


Chorus:

Bb C D
Bb C D
Bb C D
Em C Dadd4


Chords

Bb             C              D             Em            Dadd4

E A D G B E    E A D G B E    E A D G B E   E A D G B E   E A D G B E
X 1 0 2 2 X    0 3 2 0 1 0    0 0 0 2 3 2   0 2 2 0 0 0   0 0 4 0 2 3
Tap to rate this tab
 
# A B C D E F G H I J K L M N O P Q R S T U V W X Y Z