Song name
# A B C D E F G H I J K L M N O P Q R S T U V W X Y Z

Morissette Alanis - Right Through You tab

verse
e(------------)
b(------------)
g(----5-----5-)
d(------5-5---)
a(--3---------)
D(------------)

pre-chorus
e(----------)
b(----------)
g(----------)
d(--5-3-1-0-)
a(--5-3-1-0-)
D(--5-3-1-0-)

chorus
e(----------------------------)
b(----------------------------)
g(---------5-555--------------)
d(--5-6-55-5-555-5-3-5-6-6666-)
a(--5-6-55-3-333-5-3-5-6-6666-)
D(--5-6-55-------5-3-5-6-6666-)

bridge
e(-----------)
b(-----------)
g(-----------)
d(--6-5-5555-)
a(--6-5-5555-)
D(--6-5-5555-)
Tap to rate this tab
# A B C D E F G H I J K L M N O P Q R S T U V W X Y Z