Song name
# A B C D E F G H I J K L M N O P Q R S T U V W X Y Z

Mormon Tabernacle Choir - Praise To The Man tab

This wasn't too bad to tab but this is my first submission so any criticism would
be great. Thanks!

FIXED 12-5-08

-------------------------------------------------------------------------------
                             Praise to the Man
-------------------------------------------------------------------------------
Tabbed by:Georgio9

Tuning: standard


VERSE
e|------------|------------|-------0----|------------|------------|
B|------------|------------|-1--------3-|-1----------|------------|
G|------------|----------0-|-------0----|-------0----|----2-------|
D|------------|-2-----2--2-|-2--------3-|-2-----2----|-3--3-----3-|
A|-3-----3--3-|-3--3--3----|------------|------------|-3--------3-|
E|------------|------------|------------|------------|------------|

e|------------|------------|------------|------------|------------|
B|------------|------------|------------|------------|------------|
G|----0-------|------------|------------|------------|----------0-|
D|-2--2-----2-|-0-----0--2-|-0----------|------------|-2-----2--2-|
A|-3--------3-|-2--3--2--2-|-2----------|-3-----3--3-|-3--3--3----|
E|------------|------------|------------|------------|------------|

e|----0-------|------------|------------|------------|------------|---|
B|-1--------3-|-1----------|------------|------------|------------|---|
G|----0-------|-------0----|----2-------|----0-------|------------|---|
D|-2--------3-|-2-----2----|-3--3-----3-|-2--2-----2-|-0-----0--2-|---|
A|------------|------------|-3--------3-|-3--------2-|-2--3--2--2-|-3-|
E|------------|------------|------------|------------|------------|---|

CHORUS
e|------------|------------|------------|------------|------------|
B|-1--1-----1-|-0----------|-1--1-----1-|-0----------|-1--1-----1-|
G|------------|----2--0--0-|------------|----2--0----|------------|
D|-2--------2-|-0---------3|-2--------2-|-0--------3-|-2--2-----2-|
A|----3-------|------------|----3-------|------------|------------|
E|------------|------------|------------|------------|------------|

e|------------|------------|------------|------------|------------|
B|-0-----3--1-|-0-----1----|------------|------------|------------|
G|----2-------|----2-----2-|-0----------|------------|----------0-|
D|-0-----0--2-|-0-----3--3-|----3--2--0-|------------|-2-----2--2-|
A|------------|------------|------------|-3--3-----3-|-3--3--3----|
E|------------|------------|------------|------------|------------|

e|----0-------|------------|------------|------------|------------|---|
B|-1--------3-|-1----------|------------|------------|------------|---|
G|----0-------|-------0----|----2-------|----0-------|------------|---|
D|-2--------3-|-2-----2----|-3--3-----3-|-2--2-----2-|-0-----0--2-|---|
A|------------|------------|-3--------3-|-3--------3-|-2--3--2--2-|-3-|
E|------------|------------|------------|------------|------------|---|

===============================================================================


MoTab website: http://www.mormontabernaclechoir.org/
Tap to rate this tab
# A B C D E F G H I J K L M N O P Q R S T U V W X Y Z