Song name
# A B C D E F G H I J K L M N O P Q R S T U V W X Y Z

Morne - Untold Wait tab

MORNE
"Untold Wait"
Tabbed by Jake Strange.
Tuning lo to hi: C F Bb Eb G C'
http://www.facebook.com/#!/jakestrange666

-intro-
 C|---------------------------------------------------|
 G|---------------------------------------------------|
Eb|---------------------------------------------------|
Bb|-----9--10--9--------9--------9--10--9--------9----|
 F|--7---------------7--------7---------------7-------|
 C|---------------8------------------------8----------|etc.


-guitar 1-
 C|---------------------------------------|
 G|---------------------------------------|
Eb|---------------------------------------|
Bb|--12------7------9--10--------9--12----|
 F|--12------7------9--10-\--\---9--12----|
 C|--10------5------7--8--\--\---7--10----|
  |                                       |
  |-guitar 2-                             |
 C|---------------------------------------|
 G|---------------------------------------|
Eb|---------------------------------------| Too hard to tab
Bb|-----7-8-9--12-10-9--10-9-10-9-----9---| the timing, but
 F|-------------------------------10------| it's all here.
 C|--10-----------------------------------|


-verse riff-
-guitar 1-
 C|-----------------------||-------------------||-------||
 G|-----------------------||-------------------||-------||
Eb|-----------------------||-------------------||repeat-||
Bb|----9-10-12--10-9-10-9-||-----9-10-12--14-9-||-1st---||
 F|-----------------------||-------------------||measure||
 C|--0--------------------||--0----------------||-------||
  |                       ||                   ||       ||
  |-guitar 2-             ||                   ||       ||
 C|-----------------------||-------------------||-------||
 G|-----------------------||-------------------||-------||
Eb|-----------------------||-------------------||-------||
Bb|-----------------------||-------------------||-------||
 F|--2--------------------||--2----------------||-------||
 C|--0--------------------||--0----------------||-------||...

-guitar 1-
 C|---------------------------||--------------------------||
 G|---------------------------||--------------------------||
Eb|---------------------------||--------------------------||
Bb|---------------------------||------9-10-12--10-9-10-9--||
 F|-----9-10-12--10-9-10-9-7--||--------------------------||
 C|--0------------------------||--10----------------------||
  |                           ||                          ||
  |-guitar 2-                 ||                          ||
 C|---------------------------||--------------------------||
 G|---------------------------||--------------------------||
Eb|---------------------------||--------------------------||
Bb|---------------------------||--------------------------||
 F|--2------------------------||--12----------------------||
 C|--0------------------------||--10----------------------||...

-guitar 1-
 C|----------------------------------------------||
 G|----------------------------------------------||
Eb|----------------------------------------------||
Bb|------9-10-12--14-9---------------------9-----||
 F|---------------------------5--7------7-----7--||
 C|--10-----------------\--7--------8------------||
  |                                              ||
  |-guitar 2-                                    ||
 C|----------------------------------------------||
 G|----------------------------------------------||
Eb|----------------------------------------------||
Bb|----------------------------------------9-----||
 F|--12-----------------------5--7------7-----7--||
 C|--10----------------\---7--------8------------||


-mellow part- (one guitar)
 C|------------------------------------------------|
 G|------------------------------------------------|
Eb|------------------------------------------------|
Bb|--------5----------5---------4-----7-----5--4---|
 F|-----7-----7----7-----7---5-----5-----5---------|
 C|--0---------------------------------------------|

 C|-------------------------------------------------|
 G|-------------------------------------------------|
Eb|-------------------------------------------------|
Bb|-----0-----0-----0----------2-----5-----4--------|
 F|--2-----2-----2------0-2-3-----3-----3-----3-----|
 C|-------------------------------------------------|repeat all, then...

 C|---------------------------------------------------|
 G|---------------------------------------------------|
Eb|---------------------------------------------------|
Bb|----5---4---4-------5---4---4-------5---4---4------|
 F|--3---3---3---3---0---0---0---0---2---2---2---2----|
 C|---------------------------------------------------|play this 2x, then...


 C|--------------------------------------------------------------|
 G|--------------------------------------------------------------|
Eb|--------------------------------------------------------------|
Bb|----------------------5---4--5-4----5---4--5-4----5---4--5-4--|
 F|------7-5-----5-7---3---3---------0---0---------2---2---------|
 C|--0-0-----3-3-------------------------------------------------|
    This last part is played differently each time, but the notes
    are almost exactly the same. Listen to the song, it's pretty
    easy to figure out...then end it on a B power chord before the end...

-end-
 C|------------------------------------------|
 G|------------------------------------------|
Eb|------------------------------------------|
Bb|--2--4-5-5--10--10-9-7-9-9---9-7--7-5--2--|
 F|--2--4-5-5--10--10-9-7-9-9---9-7--7-5--2--|
 C|--0--2-3-3--8---8--7-5-7-7---7-5--5-3--0--| 2x
Tap to rate this tab
 
# A B C D E F G H I J K L M N O P Q R S T U V W X Y Z