Guitaretab - guitar tabs
Song name
# A B C D E F G H I J K L M N O P Q R S T U V W X Y Z

Morning Glory - Our Job Is Ta Die tab

-------------------------------------------------------------------------------
OUR JOB IS TA DIE (SERATONIN FLOOD)  Morning Glory
-------------------------------------------------------------------------------
Tabbed by:  JesusOfSbrbia
Email:  

Tuning: Standard


INTRO
   A                             A
e|---------------------------------------------------------------------------|
B|---------------------------------------------------------------------------|
G|---------------------------------------------------------------------------|
D|-11b12b11-119-11--7-7--7--7-9-11b12b11-11-9-11777--7-9------------------|
A|-(0)---------------------------(0)-----------------------------------------|
E|---------------------------------------------------------------------------|

   D                             D
e|---------------------------------------------------------------------------|
B|---------------------------------------------------------------------------|
G|-11b12b11-119-11--7-7--7--7-9-11b12b11-11-9-11777-9-7-9-----------------|
D|-(0)---------------------------(0)-----------------------------------------|
A|---------------------------------------------------------------------------|
E|---------------------------------------------------------------------------|

Repeat whole intro.

PRE-VERSE

e|---------------------------------------------------------------------------|
B|---------------------------------------------------------------------------|
G|-4---------4---6----------6---7--------7---13---13-13-13-13-13-13-13-------|
D|-x---------x---x----------x---x--------x----x----x--x--x--x--x--x--x-------|
A|-2~--------2---4~---------4---5~-------5---11---11-11-11-11-11-11-11-------|
E|-----0-0-0---0------0-0-0---0----0-0-0---0-(0)--(0)(0)(0)(0)(0)(0)(0)------|


VERSE

e|---------------------------------------------------------------------------|
B|---------------------------------------------------------------------------|
G|-------------------------------------------------7-7-7-7-7-7-7-7-----------|
D|-7-7-7-7-7-7-7-7-2-2-2-2-2-2-2-2-4-4-4-4-4-4-4-4-7-7-7-7-7-7-7-7-----------| x2
A|-7-7-7-7-7-7-7-7-2-2-2-2-2-2-2-2-4-4-4-4-4-4-4-4-5-5-5-5-5-5-5-5-----------|
E|-5-5-5-5-5-5-5-5-0-0-0-0-0-0-0-0-2-2-2-2-2-2-2-2---------------------------|

[ Tab from: http://www.guitaretab.com/m/morning-glory/101607.html ]
e|---------------------------------------------------------------------------|
B|---------------------------------------------------------------------------|
G|-------------------------7-7-7-7-------------------------7-7-7-7-----------|
D|-7-7-7-7-2-2-2-2-4-4-4-4-7-7-7-7-7-7-7-7-2-2-2-2-4-4-4-4-7-7-7-7-----------| x2
A|-7-7-7-7-2-2-2-2-4-4-4-4-5-5-5-5-7-7-7-7-2-2-2-2-4-4-4-4-5-5-5-5-----------|
E|-5-5-5-5-0-0-0-0-2-2-2-2---------5-5-5-5-0-0-0-0-2-2-2-2-------------------|


PRE-CHORUS

e|---------------------------------------------------------------------------|
B|---------------------------------------------------------------------------|
G|-44444-----6---7-----------------------------------------------------------|
D|-xxxxx-----x---x-----------------------------------------------------------| x2
A|-22222-----4---5~----------------------------------------------------------|
E|-------0-0---0-------------------------------------------------------------|

e|---------------------------------------------------------------------------|
B|---------------------------------------------------------------------------|
G|-44444-----6---7--7-7-7-7-7-7-7-9-9-9-9-9-9-9-9-9-9-9-9-7-7-6-6------------|
D|-xxxxx-----x---x--x-x-x-x-x-x-x-x-x-x-x-x-x-x-x-x-x-x-x-x-x-x-x------------| x1
A|-22222-----4---5~-5-5-5-5-5-5-5-7-7-7-7-7-7-7-7-7-7-7-7-5-5-4-4------------|
E|-------0-0---0------------------0-0-0-0-0-0-0-0-0-0-0-0-0-0-0-0------------|
CHORUS

e|---------------------------------------------------------------------------|
B|---------------------------------------------------------------------------|
G|------------------------/11--9--7--6---7-7-----9-9-------------2--6-11--9--|
D|-4-4-----7-7-----2-2----/-x--x--x--x---7-7-----9-9-----7-7-----x--x--x--x--|
A|-4-4-----7-7-----2-2----/-9--7--5--4---5-5-----7-7-----7-7-----0--4--9--7--|
E|-2-2-----5-5-----0-0-----------------------------------5-5-----------------|

e|---------------------------------------------------------------------------|
B|---------------------------------------------------------------------------|
G|-11------9-----11-----------13--13-----------------------------------------|
D|--x------x------x------------x---x-----------------------------------------|
A|--9------7------9-----------11--11-----------------------------------------|
E|---------------------------------------------------------------------------|

Back to intro riff.



| /  slide up
| \  slide down
| h  hammer-on
| p  pull-off
| ~  vibrato
| +  harmonic
| x  Mute note
===============================================================================
Related for Our Job Is Ta Die tab