Guitaretab - guitar tabs
Song name
# A B C D E F G H I J K L M N O P Q R S T U V W X Y Z

Morning Glory - Wasting My Time tab

Morning Glory

Tabbed by: Josh B
[ Tab from: http://www.guitaretab.com/m/morning-glory/120816.html ]
played by 2 guitars at the same time
(GO A LITTLE FASTER EACH TIME FOR THE INTRO)
guitar 1
-------------------------------------------------
-------------------------------------------------
-------------------------------------------------
--------9--------7--------5--3----3-3------------
-----9--------7--------5-----3----3-3------------
--7--------5--------3--------1----1-1------------X3
guitar 2
-------------------------------------------------
-------------------------------------------------
-------------------------------------------------
-----9--------7-------5-----3-----3-3------------
--------9--------7-------5--3-----3-3------------
--7--------5--------3-------1-----1-1------------X3

chorus
played by 2 guitars at the same time with the same notes
all quick stokes and ~ means let ring for a second

guitar 1 and 2
-------------------------------------------------------
-------------------------------------------------------
-------------------------------------------------------
-9-9-9-9---9-7-7-7-7---7-5-5-5-5---5-3--3--3--3--8~~~--
-9-9-9-9---9-7-7-7-7---7-5-5-5-5---5-3--3--3--3--8~~~--
-9-9-9-9---9-7-7-7-7---7-5-5-5-5---5-3--3--3--3--8~~~--X3
Related for Wasting My Time tab
Advertisement will be closed in 10 seconds