Song name
# A B C D E F G H I J K L M N O P Q R S T U V W X Y Z

Morning Glory - Summerburst tab

Intro:
(Guitar 1)
E---------------------------------------------------------|
B-10---10---10---10-10------------------------------------|
G----9----9----9-------9----------------------------------|
D---------------------------------------------------------|
A---------------------------------------------------------|
E---------------------------------------------------------|
(Guitar 2 comes in with this over guitar one. This also becomes the verse for the rest 
the song.)
E----------------------------------------------------------|
B----------------------------------------------------------|
G----------------------------------------------------------|
D----------------------------------------------------------|(8x)
A-7-12-4-11-9-11/9-----------------------------------------|
E-5-10-2-9--7-9-/7-----------------------------------------|

Chorus:
(Guitar 1)
It has a pretty awkward strumming pattern, but you'll get it if you listen closely.
E----------------------------------------------------------|
B----------------------------------------------------------|
G-9--13-14-------------------------------------------------|
D-x---x--x-------------------------------------------------|
A-7--11-12-------------------------------------------------|
E----------------------------------------------------------|

(Guitar 2)
E----------------------------------------------------------|
B----------------------------------------------------------|
G----------------------------------------------------------|
D----------------------------------------------------------|
A--7---12--------------------------------------------------|
E--5---10--------------------------------------------------|

After Chorus:
(Both Guitars)
E-------------------------------------------------------------|
B-------------------------------------------------------------|
G-9-8-7-6------12-11-10-9-------------------------------------|
D-x-x-x-x-(2x)--x-x--x--x--Then repeat the first part again---|
A-7-6-5-4------10-9--8--7-------------------------------------|
E-------------------------------------------------------------|

It then goes back into the intro and verse, then chorus. After the second chorus they go 
this:
(Guitar 2; I couldn't figure out what guitar 1 was playing)
E-------------------------------------------------------------|
B-------------------------------------------------------------|
G-------------------2-2---------------------------------------|
D-------2-2---------2-2---------------------------------------|
A-4-4---2-2---4-4---0-0---------------------------------------|
E-2-2---0-0---2-2---------------------------------------------|

It then goes back into the chorus 8x

End on:
E-------------------|
B-------------------|
G-------------------|
D-7~~---------------|
A-5~~---------------|
E
Tap to rate this tab
# A B C D E F G H I J K L M N O P Q R S T U V W X Y Z