Song name
# A B C D E F G H I J K L M N O P Q R S T U V W X Y Z

Morning Glory - The War Is Over tab

intro/verse

part 1 3 & 1/2X for intro         part 2
e|---------------------------------|-2-|
B|-----3---2-----------2-------2---|-2-|
G|---2---2---2---2---2---2---2---2-|-2-|
D|-0-----------0---4-------2-------|-4-|
A|---------------------------------|-4-|
E|---------------------------------|---|

verse is just part one

chorus part 1 X2                                 part 2
e|-----------------------------------------3-2-|---------------3-0-----0----(0)-|
B|-------3-2--------3-2--------3-2-------------|---2-3-----3-2-3-0-----0----(0)-|
G|---4----------2----------2-----------2-------|-4-2-2-----2-2-0-X-----X----(X)-|
D|-----4----------2-----20---0-----0-----4-----|-4-4-4-(4)-4-4-0-2-(2)-2-(2)(2)-|
A|-2---------20---------------------/5---------|-2-4-2-----5-4-X-2-(2)-2-(2)(2)-|
E|---------------------------------------------|---------------3-0-(0)-0-(0)(0)-|
Tap to rate this tab
 
# A B C D E F G H I J K L M N O P Q R S T U V W X Y Z