Song name
# A B C D E F G H I J K L M N O P Q R S T U V W X Y Z

Morning Glory - Gimme Heroin tab

-------------------------------------------------------------------------------
     Gimme Heroin - Morning glory
-------------------------------------------------------------------------------
Tabbed by: Pmdean95
E-mail: Pmdean95@gmail.com

Tuning: standard

This has always been one of my favorite songs and I've spent many days and nights 
listening and transposing this to perfection,
so I can confidently say that i've tabbed this song out very accurately. 
Enjoy!

Intro:
lead guitar:
e|------------|
B|------------|
G|------------|
D|------------|
A|-----9/-----|
E|------------|      

e|----------------------------------|
B|----------------------------------|
G|----------------------9-11-8-8----|   
D|-----6\7---------6/7--x-x--x-x----|    
A|--4-----------4-------7-9--6-6----|
E|----------------------------------| x2

rhythm guitar: (skank chords) 
e|--4-----7-----7-------------------|
B|--5-x4--9-x2--7-x2----------------|
G|--6-----9-----8-------------------|
D|--6-----9-----9-------------------|  
A|----------------------------------|
E|----------------------------------| x4


Verse:
lead guitar:
e|----------------------------------|       |--------------------------------|
B|----------------------------------|       |--------------5-------9-9-------|
G|------------------------9-11-8-8--|       |--------------6---6---9-9-6666--|
D|-----6\7---------6/7----x-x--x-x--|       |-----6\7------6---7---9-9-7777--|
A|--4-----------4---------7-9--6-6--|       |--4-----------4---7---7-7-7777--|
E|----------------------------------| x3    |------------------5-------------|

rhythm guitar: (skank chords) 
e|--4-----7-----7-----|       |--------x5x7x7x7x7-|  
B|--5-x4--9-x2--7-x2--|       |--5-----x5x9x9x7x7-|  
G|--6-----9-----8-----|       |--6---6-x6x9x9x8x8-|  
D|--6-----9-----9-----|       |--6---7-x7x9x9x9x9-|  
A|--------------------|       |--4---7------------|  
E|--------------------| x3    |------5------------|   

e|--4-----7-----7----4-------------4-----7-----7-------------7-7-7777-|
B|--5-x4--9-x2--7-x2-5-x4--9-10-7--5-x4--9-x2--7-x2--5-------9-9-7777-|
G|--6-----9-----8----6-----x--x-x--6-----9-----8-----6---6---9-9-8888-|
D|--6-----9-----9----6-----x--x-x--6-----9-----9-----6---7---9-9-9999-|
A|-------------------------7--9-6--------------------4---7---7-7-9999-|
E|-------------------------------------------------------5---7-7-7777-|


Chorus:
rhythm guitar: (skank chords)
e|--7-----5-----7-----7-----|       |--7-----5-----7---7---|
B|--9-x2--5-x2--9-x2--7-x2--|       |--9-x2--5-x2--9---8---|
G|--9-----6-----9-----8-----|       |--9-----6-----9---9---|
D|--9-----7-----9-----9-----|       |--9-----7-----9---9---|
A|--------------------------|       |----------------------|
E|--------------------------| x3    |----------------------|

lead guitar: (skank chords)
e|--7-----5-----7-----7------|       |--7-----5---------------| 
B|--9-x2--5-x2--7-x2--7-x2-- |       |--9-x2--5-x2------------|
G|--9-----6-----8-----8------|       |--9-----6-----9- 11-8---|
D|--9-----7-----9-----9------|       |--9-----7-----x--x--x---|
A|---------------------------|       |--------------7--9--6---|
E|---------------------------| x3    |------------------------|
 

Verse 2:
lead guitar:
e|---------------------------------|       |-------------------------------|
B|---------------------------------|       |-------------------------------|
G|----------------------9-11-8-8---|       |--------------6-------9-9------|
D|-----6\7---------6/7--x-x--x-x---|       |-----6\7------6---7---9-9-9999-|
A|--4-----------4-------7-9--6-6---|       |--4-----------4---7---7-7-9999-|
E|---------------------------------| x3    |------------------5-------7777-|

rhythm guitar: (skank chords) 
e|--4-----7-----7-----|       |--4-x4x4x4---------|  
B|--5-x4--9-x2--7-x2--|       |--5-x5x5x59-10-8---|
G|--6-----9-----8-----|       |--5-x5x5x5x-x--x---|
D|--6-----9-----9-----|       |--6-x6x6x6x-x--x---|
A|--------------------|       |----------7-9--6---|
E|--------------------| x3    |-------------------|

e|--4-----7-----7-----|       |----------7-7-7777-|
B|--5-x4--9-x2--7-x2--|       |--5-------9-9-7777-|
G|--6-----9-----8-----|       |--5---6---9-9-8888-|
D|--6-----9-----9-----|       |--6---7---9-9-9999-|
A|--------------------|       |--4---7---7-7-9999-|
E|--------------------| x3    |------5---7-7-7777-|


(REPEAT CHORUS)


Pre-bridge:

[two measure break]

lead guitar:
e|----------7-7-77---|
B|--5-------9-9-77---|
G|--6---6---9-9-88---|
D|--6---7---9-9-99---|
A|--4---7---7-7-99---|
E|------5------------|

rhythm guitar:
e|----------7-7-77---|
B|--5-------9-9-77---|
G|--6---6---9-9-88---|
D|--6---7---9-9-99---|
A|--4---7---7-7-99---|
E|------5------------|


Bridge:
lead guitar:
e|--------------------------------------|   
B|--10-101010-9--999--7--777--5--555----|   
G|--x--x-x-x--x--xxx--x--xxx--x--xxx----|   
D|--7--7-7-7--6--666--4--444--2--222----|   
A|--------------------------------------|   
E|--------------------------------------| x3

                                       "HER-OIN"
e|----------------------------------------------|
B|--10-101010-9--999--10-101010-12--------------|
G|--x--x-x-x--x--xxx--x--x-x-x--x---------------|
D|--7--7-7-7--6--666--7--7-7-7--9---------------|
A|----------------------------------------------|
E|----------------------------------------------|

rhythm guitar:
e|-----------------------------------|
B|--10------9-------7-------5--------|
G|--x-------x-------x-------x--------|  
D|--7-------6-------4-------2--------|
A|-----------------------------------|
E|-----------------------------------| x3

                                   "HER-OIN"
e|------------------------------------------|
B|--10------9-------10------12--------------|
G|--x-------x-------x-------x---------------|  
D|--7-------6-------7-------9---------------|
A|------------------------------------------|
E|------------------------------------------| 


Solo:
lead guitar:
e|---------------------------------------------|
B|-----------------7-----------7-9-9b10-7~~~---|
G|--5b6-969-6----69--9-5b6-969-----------------|
D|----------(6)7-------------------------------|
A|---------------------------------------------|
E|---------------------------------------------|

e|---------------------------------------------|
B|-----------------7-----------7-9b10br97------|
G|--5b6-969-6----69--9-5b6-969-----------97~---|
D|----------(6)7-------------------------------|
A|---------------------------------------------|
E|---------------------------------------------|

rhythm guitar: (skank chords)
e|--4-----7-----7-----|       |-------------------|
B|--5-x4--9-x2--7-x2--|       |--5-------9-9-7----|
G|--6-----9-----8-----|       |--6---6---9-9-8----|
D|--6-----9-----9-----|       |--6---7---x-x-x----|
A|--------------------|       |--4---7---7-7-6----|
E|--------------------| x3    |------5------------|


Last chorus:
lead guitar: (skank chords)
e|--7-----5-----7-----7------|       |--7-----5--------------|
B|--9-x2--5-x2--9-x2--7-x2---|       |--9-x2--5-x2-----------|
G|--9-----6-----9-----8------|       |--9-----6-----9-11-7-7-|
D|--9-----7-----9-----9------|       |--9-----7-----x--x-x-x-|
A|---------------------------|       |--------------7--9-5-5-|
E|---------------------------| x3    |-----------------------|

e|--7-----5-----7-----7------|       |--7-----5--------------|-----|
B|--9-x2--5-x2--9-x2--7-x2---|       |--9-x2--5-x2-----------|-----|
G|--9-----6-----9-----8------|       |--9-----6-----9-11-8---|--6--|
D|--9-----7-----9-----9------|       |--9-----7-----x--x-x---|--x--|
A|---------------------------|       |--------------7--9-6---|--4--|
E|---------------------------| x3    |-----------------------|-----|

rhythm guitar: (skank chords)
e|--7-----5-----7-----7------|       |--7-----5--------------|
B|--9-x2--5-x2--9-x2--7-x2---|       |--9-x2--5-x2-----------|
G|--9-----6-----9-----8------|       |--9-----6------9---8---|
D|--9-----7-----9-----9------|       |--9-----7------x---x---|
A|---------------------------|       |---------------7---6---|
E|---------------------------| x3    |-----------------------|

e|--7-----5-----7-----7------|       |--7-----5-------------|--4--|
B|--9-x2--5-x2--9-x2--7-x2---|       |--9-x2--5-x2----------|--5--|
G|--9-----6-----9-----8------|       |--9-----6-----9---8---|--6--|
D|--9-----7-----9-----9------|       |--9-----7-----x---x---|--6--|
A|---------------------------|       |--------------7---6---|--4--|
E|---------------------------| x3    |----------------------|-----|


THE END!

Skank on.

 
************************************

| /   slide up
| \   slide down
| b   Bend
| ~   vibrato
| x   mute note
| br  Bend release
|(  ) grace note

************************************
Tap to rate this tab
# A B C D E F G H I J K L M N O P Q R S T U V W X Y Z