Song name
# A B C D E F G H I J K L M N O P Q R S T U V W X Y Z

Morning Glory - School Is Bullshit tab

song:school is bullshit
band:morning glory
tabbed by: ross borenstein
email:carpetcarpetcarpet@gmail.com

intro:
|--------------------------------|
|-9--9----9--9-------------------|
|-----------------8--8----8-9----|
|--9--9-9--9--9-9--9--9-9-----11-|
|--------------------------------|
|--------------------------------| x2

|---------------------------------------------|
|---------------------------------------------|
|-9-9-9-9-9-9-9-9-9-9---6-6-6-6-6-6-6-6-6-6---|
|-9-9-9-9-9-9-9-9-9-9-9-6-6-6-6-6-6-6-6-6-6-7-|
|-7-7-7-7-7-7-7-7-7-7-9-4-4-4-4-4-4-4-4-4-4-7-|
|---------------------7---------------------5-|

harmony:
|------------------------------------------------------------|
|------------------------------------------------------------|
|-9-9-9-9-9-9-9-9-9-9-11-11-11-13-13-13-13-13-13-13-14-13-11-|
|-x-x-x-x-x-x-x-x-x-x-x--x--x--x--x--x--x--x--x--x--x--x--x--|
|-7-7-7-7-7-7-7-7-7-7-9--9--9--11-11-11-11-11-11-11-12-11-9--|
|------------------------------------------------------------|



|--------------------------------------------|
|--------------------------------------------|
|-7-7-7-x-x-x-7-7-7-x-x-x--4-4-4-4-4---------|
|-7-7-7-x-x-x-7-7-7-x-x-x--4-4-4-4-4-5-5-5-5-|
|-5-5-5-x-x-x-5-5-5-x-x-x--2-2-2-2-2-5-5-5-5-|
|------------------------------------3-3-3-3-|
"school is bullshit, school is bullshit...."


breakdown:
|---------------------------------------------|
|---------------------------------------------|
|-9-9-9-9-9\-----6-6-6-6-6\-------------------|
|-9-9-9-9-9\-9-9-6-6-6-6-6\-7-5---------------|
|-7-7-7-7-7\-9-9-4-4-4-4-4\-7-5---------------|
|------------7-7------------5-5---------------|

"solo"
|--------------------------------|
|-9--9----9--9-------------------|
|-----------------8--8----8-9----|
|--9--9-9--9--9-9--9--9-9-----11-|
|--------------------------------|
|--------------------------------|

|--------------------------------|
|-9--9----9--9-------------------|
|-----------------8--8----8-9----|
|--9--9-9--9--9-9--9--9-9-----11-|
|--------------------------------|
|--------------------------------|

|------------------------------|
|-9--9----9-10-9-7-------------|
|------------------8-8---8-9---|
|--9--9-9-----------9-9-9---11-|
|------------------------------|
|------------------------------|

|------------------------------|
|-9--9----9-10-9-7-------------|
|------------------8-8---8-9---|
|--9--9-9-----------9-9-9---11-|
|------------------------------|
|------------------------------|

back to:
|--------------------------------------------|
|--------------------------------------------|
|-7-7-7-x-x-x-7-7-7-x-x-x--4-4-4-4-4---------|
|-7-7-7-x-x-x-7-7-7-x-x-x--4-4-4-4-4-5-5-5-5-|
|-5-5-5-x-x-x-5-5-5-x-x-x--2-2-2-2-2-5-5-5-5-|
|------------------------------------3-3-3-3-|
"school is bullshit, school is bullshit...."

outro:
|--------------------------------|
|--------------------------------|
|-7-7-7-x-x-x-7-7-7---4---4------|
|-7-7-7-x-x-x-7-7-7-5-4-5-4------|
|-5-5-5-x-x-x-5-5-5-5-2-5-2-5~~~-|
|-------------------3---3--------|
not 100% on the outro...but the rest of the song is pretty much right.
Tap to rate this tab
# A B C D E F G H I J K L M N O P Q R S T U V W X Y Z