Song name
# A B C D E F G H I J K L M N O P Q R S T U V W X Y Z

Morning Musume - Kanashimi Twilight tab

    Key: E

-----------------------------------|-------------------|
-----------------------------------|-------------------|
-6-6-------------------------------|-------------------|
-6-6--4b-r4-2-----------2--4b-r4-2-|-------------------|
-4-4----------4-2-4-2-4------------|-------------------|
-----------------------------------|-------------------|

-----------------------------------|------------------|
----------------------7--------7-9v|------------------|
-6-6--------------6-4---6v-6-9-----|------------------|
-6-6--4b-r4-2---2------------------|------------------|
-4-4----------4--------------------|------------------|
-----------------------------------|------------------|


-7-----------------|----------------------------------|
---9r7-----7-------|----------------------------------|
-------9v----6v----|----------------------------------|
-------------------|----------------------------------|
-------------------|----------------------------------|
-------------------|----------------------------------|


-9---9-----------------------------------------------|
-12b-12b--12-9-16-14-16-17bv--17-16--17-16-14v-------|
-----------------------------------------------6-4-6-|
-----------------------------------------------6-4-6-|
-----------------------------------------------4-2-4-|
-----------------------------------------------------|
Tap to rate this tab
# A B C D E F G H I J K L M N O P Q R S T U V W X Y Z