Song name
# A B C D E F G H I J K L M N O P Q R S T U V W X Y Z

Morning Musume - The Manpower tab

'The Manpower!!!' by Morning Musume. Transcribed by Man Out Of Time. Message with corrections.

Key: C#m

Intro riff:
--------------------------------------------------------|
--------------------------------------------------------|
--------------------------------------------------------|
--------------------------------------------------------|
-4-----4-2-0----------------0-----------------------2-3-|
---4---------4-----5-0-5------4-2-2-2-2-3-4-4-4---4-----|
                      

-------------------------------|---------------|-----------------------|
-------------------------------|---------------|-----------------------|
-------------------------------|---------------|-----------------------|
-------------------------------|---------------|-----------------------|
-4-----4-2-0---------------0---|---------------|-----------------------|
---4---------4-----5-0-5-----4-|-2-2-2-2-2-----|--2tr---4-5--2tr---4-5-|
   		                sometimes ends| and sometimes                

Intro and Chorus:	
		
C#m	A	F#m	G#  	x7
C#m	A	B		 
C#m	A	F#m	G#	

Middle:	        
                
G#	C#m	F#m	 G#-C#m
C#m	B	A		B	

Verse:	        
                
C#m	A	F#m	G#	
C#m	A	B	G#
C#m	A	F#m	G#	
C#m	A	B	G#

Chorus 2:	
                
C#m	A	F#m	G# 	x4
C#m	A	B	
C#m	A	F#m	G#
	
Middle 2
Verse 2
Intro riff 
Verse 3

Chorus 3:
	
C#m	A	F#m	G# 	x8

Tap to rate this tab
# A B C D E F G H I J K L M N O P Q R S T U V W X Y Z