Song name
# A B C D E F G H I J K L M N O P Q R S T U V W X Y Z

Morning Musume - Roman My Dear Boy chords

Tabbed by manOutOfTime (neil_willey@hotmail.com) My attempt at the great lead for
Roman (My Dear Boy)

-----------------------------------------------------------------------------|
--------------------19h20r19r17-19-------------------------------------------|
13b------17b-15---------------------19h20r19r17-19---------------------------|
-----13----------------------------------------------------------------------|
-----------------------------------------------------------------------------|
-----------------------------------------------------------------------------|
Main Riff

----------------------------------|----------------------------------|-------|
--------------------17------------|------15h17h18-17-----15h17h18-17-|-------|
--19h20----17h18-20----20-18-17---|--15---------------15-------------|-------|
--------20------------------------|----------------------------------|-------|
----------------------------------|----------------------------------|-------|
----------------------------------|----------------------------------|-------|


-------------16h18b20v-|-------|----------------------------------------------|
-20--1818-20-----------|-------|---20-18-17--18-19-20v------------------------|
-----------------------|-------|----------------------------------------------|
-----------------------|-------|----------------------------------------------|
-----------------------|-------|----------------------------------------------|
-----------------------|-------|----------------------------------------------|
 1st ending                 Riff ending 2nd time

--|-------------------------------------|--------------t---------------------|
--|-------------------------------------|--------4-6---9-6-8-----------------|
--|-/20-19--------/17-15-----/22-20-----|--3-5-7-----------------------------|
--|--------18v-----------15v--------17--|------------------------------------|
--|-------------------------------------|------------------------------------|
--|-------------------------------------|------------------------------------|
    Solo

t-------t-------t---------t----------13-9-11--15-11-13--16-13-15-------------|
11-8-9--13-9-11-14-11-13--16-13-14---t--------t---------t--------------------|
-----------------------------------------------------------------------------|
-----------------------------------------------------------------------------|
-----------------------------------------------------------------------------|
-----------------------------------------------------------------------------|


--17b19--17-15----15---------------------------------------------18-18-------|
---------------19----/15-/13------------------------------15-18--------------|
------------------------------/12--------------------15-17-------------------|
----------------------------------/12----------15-17-------------------------|
----------------------------------------/15-18-------------------------------|
-----------------------------------------------------------------------------|


-20brbrv---|---------------------------------|------------------------------|
-----------|--------20r18-17-18-20r18r17\13v-|------------------------------|
-----------|---------------------------------|------------------------------|
-----------|---------------------------------|------------------------------|
-----------|---------------------------------|------------------------------|
-----------|---------------------------------|------------------------------|
            Final Main Riff Ending
Tap to rate this tab
# A B C D E F G H I J K L M N O P Q R S T U V W X Y Z